Аккорды 50 Cent - Candy Shop

Добавлено: @romashka
Дата добавления: 24 Июня 2018г.
Рейтинг:
0.0
Просмотров: 19
Транспонировать - +
Вступление:
E|-9-----7----5----4----2--------|
B|--10----9----7----5----3-------|
G|----11---9----7----6----4------|
D|-------------------------------|
A|-------------------------------|
D|-------------------------------|

E|-------------------------------|
B|-------------------------------|
G|-------------------------------|
D|---5544---5544---5544---24574--|
A|-------------------------------|
D|-4-5544-4-5544-4-5544-4-24574--|

Припев:
I TAKE YOU TO THE CANDY SHOP...
E|-------------------------------|
B|-------------------------------| x2 
G|-------------------------------|
D|---5544---5524---5544---24574--| 
A|-------------------------------|
D|-4-5544-4-5524-4-5544-4-24574--|

2 раза:
E|--------------------------------------------------------------|
B|--8--8--7--7-----8--8--5--7-----8--8--7--7---5--7--8--10--8---|
G|--------------------------------------------------------------|
D|--------------------------------------------------------------|
A|9-10-10-9--9---9-10-10-7--9---9-10-10-9--9---7--9--10--12-9---|
D|--------------------------------------------------------------|
comments powered by Disqus
Наверх