Аккорды Адаптация - Искренний рок

Добавлено: @romashka
Дата добавления: 08 Января 2022г.
Рейтинг:
0.0
Просмотров: 61
Транспонировать - +
[Соло 1]:
T| 4 4 4 4 | 4 4 4 4 | 4 4 4 4 | 8 8 4 4 4 |
e|---------|---------|---------|-----------|
H|-------4-|-5-----4-|---------|-5-4-------|
G|---------|---------|-4-------|-----4-----|
D|---------|---------|---------|-----------|
A|-7-------|---------|---------|-----------|
E|---------|---------|---------|-----------|

T| 4 4 4 4 | 4 4 4 4 | 4 4 4 4 | 4 4 4 4 |
e|---------|---------|---------|---------|
H|-------4-|-5-----4-|---------|---------|
G|---------|---------|-4-----6-|---------|
D|---------|---------|---------|-6-------|
A|-7-------|---------|---------|---------|
E|---------|---------|---------|---------|

[Соло 2]:
T| [ 4 4 4 4 | 4 4 4 4 | 4 4 4 4 | 4 4 4 4 ](x2) |
e|-[---------|---------|---------|---------]-----|
H|-[---------|---------|---------|-4-------]-----|
G|-[-4-----6-|-4-----3-|-4-----6-|---------]-----|
D|-[---------|---------|---------|---------]-----|
A|-[---------|---------|---------|---------]-----|
E|-[---------|---------|---------|---------]-----|

T| 4 4 4 4 | 4 4 4 4 | 4 4 4 4 | 4 4 4 4 |
e|---------|---------|---------|---------|
H|---------|---------|---------|-4-------|
G|-4-----6-|-4-----3-|-4-----6-|---------|
D|---------|---------|---------|---------|
A|---------|---------|---------|---------|
E|---------|---------|---------|---------|


[Куплет 1]:

T| 4 4 4 4 | 4 4 4 4 | 4 4 4 4 | 4 4 4 4 |
e|---------|---------|---------|---------|
H|---------|---------|---------|-4-------|
G|-4-----6-|-4-----3-|-4-----6-|---------|
D|---------|---------|---------|---------|
A|---------|---------|---------|---------|
E|---------|---------|---------|---------|

T| 4 4 4 4 | 4 4 4 4 | 4 4 4 4 | 4 4 4 4 |
e|---------|---------|---------|---------|
H|---------|---------|---------|-4-----7-|
G|-4-----6-|-4-----3-|-4-----6-|---------|
D|---------|---------|---------|---------|
A|---------|---------|---------|---------|
E|---------|---------|---------|---------|


T| 4 4 4 4 | 4 4 4 4 | 4 4 4 4 | 4 4 4 4 |
e|-4-------|---------|---------|---------|
H|-------7-|-4-----5-|-4-------|---------|
G|---------|---------|-----6---|-4-------|
D|---------|---------|---------|---------|
A|---------|---------|---------|---------|
E|---------|---------|---------|---------|

T| 4 4 4 4 | 4 4 4 4 | 4 4 4 4 | 4 4 4 4 |
e|-4-------|---------|---------|---------|
H|-------7-|-4-----5-|-4-------|---------|
G|---------|---------|-----6---|-4-------|
D|---------|---------|---------|---------|
A|---------|---------|---------|---------|
E|---------|---------|---------|---------|

[Проигрыш 1]:
D#m C#m
D#m C#m
H
D#m C#m
D#m C#m
H

[Куплет2]:

T| 4 4 4 4 | 4 4 4 4 | 8 8 8 8 8 8 8 8 |
e|---------|---------|-----------------|
H|---5---5-|---5---5-|---------4-------|
G|---4---4-|---4---4-|-----4-6-----4---|
D|---2---2-|---2---2-|---6-------6---6-|
A|---------|---------|-----------------|
E|---------|---------|-----------------|

T| 4 4 4 4 | 4 4 4 4 | 1 |
e|---------|---------|---|
H|---5---5-|---5---5-|---|
G|---4---4-|---4---4-|---|
D|---2---2-|---2---2-|-6-|
A|---------|---------|-6-|
E|---------|---------|-4-|

[Проигрыш 2]:
D#m C#m
D#m F#m
H
D#m C#m
D#m F#m
H

[Куплет 3]:

T| 4 4 4 4 | 4 4 4 4 | [ 4  4      4    4         ](x2) |
e|---------|---------|-[--------------------------]-----|
H|-------4-|-5-----4-|-[--------------------------]-----|
G|---------|---------|-[--------------------------]-----|
D|---------|---------|-[-6--6-6-6--6-6--6-6-6-6-6-]-----|
A|-7-------|---------|-[-6--6-6-6--6-6--6-6-6-6-6-]-----|
E|---------|---------|-[-4--4-4-4--4-4--4-4-4-4-4-]-----|

[Бридж 1]:
H F# A E G A

[Бридж 2]:
T| [ 4 4 4 4 | 4 4 4 4 | 4 4 4 4 | 4 4 4 4 ]    |
e|-[---------|---------|---------|---------](x2)|
H|-[---------|---------|---------|-4-------]----|
G|-[-4-----6-|-4-----3-|-4-----6-|---------]----|
D|-[---------|---------|---------|---------]----|
A|-[---------|---------|---------|---------]----|
E|-[---------|---------|---------|---------]----|

[Куплет 4]:

T| [ 4 4 4 4 | 4 4 4 4 | 4 4 4 4 | 4 4 4 4 ]    |
e|-[---------|---------|---------|---------](x2)|
H|-[---------|---------|---------|-4-------]----|
G|-[-4-----6-|-4-----3-|-4-----6-|---------]----|
D|-[---------|---------|---------|---------]----|
A|-[---------|---------|---------|---------]----|
E|-[---------|---------|---------|---------]----|


T| 4 4 4 4 | 4 4 4 4 | 4 4 4 4 | 8 8 4 4 4 |
e|---------|---------|---------|-----------|
H|-------4-|-5-----4-|---------|-5-4-------|
G|---------|---------|-4-------|-----4-----|
D|---------|---------|---------|-----------|
A|-2-------|---------|---------|-----------|
E|-0-------|---------|---------|-----------|

T| 4 4 4 4 | 4 4 4 4 | 4 4 4 4 |
e|---------|---------|---------|
H|-------4-|-5-----4-|---------|
G|---------|---------|---------|
D|---------|---------|-6-6-6---|
A|-7-------|---------|-6-6-6---|
E|---------|---------|-4-4-4---|

----




[Куплет 1]:
E
Когда закончился искренний рок
E
И наступила эпоха дизайна
G#m
Я плевал в потолок
G#m

Когда пришли вуайеристы
И Цукерберг украл наши лица
Каждый спасался как мог

Когда нас всех одолели соблазны
Я понимал то что их безопасность -
Троянский конь

Такого не было никогда раньше
Но мы исчезнем как те Каманчи
Точно в срок



[Куплет 2]:
Мы моряки, у нас нет вопросов
Но аппетит новых кампрачикосов
Давит на грудь

Генералиссимус смотрит с портрета
Мне так хотелось тепла и лета
Полярный круг

Утробы гетто хранят несогласных
Горят столицы завидя пожарных -
Дань огню

Мы посмеёмся, но только чуть позже
Ну а пока мы как Ленин в Польше -
Не смешно




[Куплет 3]:
Двадцатый век превзошёл ожиданья
Цари природы сходили с ума
Конец мирозданью

В далёком космосе чёрные дыры
Зима настанет - уйдём на квартиры
Жизнь онлайн

Они вернулись, нам не оправданий
Казённый дух, ренессанс ненавистных
Сталинских зданий

Над мёртвой зоной таокое-же небо
И все дороги ведут на север
No future forever!





[Куплет 4]:
Когда закончился искренний рок
И наступила эпоха дизайна
Я плевал в потолок

Когда пришли вуайеристы
И Цукерберг украл наши лица
Каждый спасался как мог

Когда нас всех одолели соблазны
Я понимал то что их безопасность -
Троянский конь

Такого не было никогда раньше
Но мы исчезнем как те Каманчи
Точно в срок

T - Тактовая строка на табулатуре.
[Соло1]: - Заголовок фрагмента мелодии.
 - Вставка соответствующего фрагмента мелодии.
Наверх