Аккорды Аквариум - Ткачиха

Добавлено: @romashka
Дата добавления: 08 Ноября 2019г.
Рейтинг:
0.0
Просмотров: 17
Транспонировать - +
Вступление:
   D                      D
e------------------------------------------------
B-10-10-10-10--8-12-10---10-10-10-10--8--7--8--7-  x2
G-11-11-11-11--9-12-11---11-11-11-11--9--7--9--7-
D------------------------------------------------
A------------------------------------------------
E------------------------------------------------

   G                      G
e-10-10-10-10--9--9--7----7--7--7--9--9--7--7--5-
B-12-12-12-12-10-10--8----8--8--8-10-10--8--8--6-
G------------------------------------------------
D------------------------------------------------
A------------------------------------------------
E------------------------------------------------

   D                      D
e------------------------------------------------
B-10-10-10-10--8-12-10---10-10-10-10--8--7--8--7-
G-11-11-11-11--9-12-11---11-11-11-11--9--7--9--7-
D------------------------------------------------
A------------------------------------------------
E------------------------------------------------

   G                      G
e------------------------------------------------
B--3--3--3--3--2--2--0----0--0--0--2--2--0--0--3-
G--4--4--4--4--2--2--0----0--0--0--2--2--0--0--4-
D------------------------------------------------
A------------------------------------------------
E------------------------------------------------
   D                      D
e------------------------------------------------
B-10-10-10-10--8-12-10---10-10-10-10--8--7--8--7-
G-11-11-11-11--9-12-11---11-11-11-11--9--7--9--7-
D------------------------------------------------
A------------------------------------------------
E------------------------------------------------

      D
Мне снилось, что я ткачиха,
   D                           D 
Которая часто бывает мною во сне.

D D D Dsus2 Dsus4 D D D D D Dsus4 D Dsus4 D

   D                          D
Я долго не мог понять - то ли я снюсь ей,
                       D 
То ли это она снится мне.

D D D Dsus2 Dsus4 D  D D D D Dsus4 D Dsus4 D

        G
Да, я знаю, что об этом писали китайцы,
     G                                       D 
Но теория суха, а древо жизни зеленеет в листах;

D D D Dsus2 Dsus4 D D D D D Dsus4 D Dsus4 D

    A
Придётся проснуться и поехать в Иваново
    A                                          D 
Проверить, как реально обстоят там дела на местах.

D D D Dsus2 Dsus4 D  D D D D Dsus4 D Dsus4 D

 D
Волга шумит волнами;
 D                              D 
Редкая птица долетит до её берегов

D D D Dsus2 Dsus4 D  D D D D Dsus4 D Dsus4 D

       D
А на всех берегах черно от тех, кто
  D                                              D 
Ожидает, когда течение пронесёт мимо тела их врагов.

D D D Dsus2 Dsus4 D  D D D D Dsus4 D Dsus4 D

          G
И только полная луна оживляет
 G                           D 
Чередование этих верхов и низин.

D D D Dsus2 Dsus4 D  D D D D Dsus4 D Dsus4 D

       A
Слава Богу, что она никогда не читала
        A                                        D 
Ни "Цветочков Франциска Ассизского", ни Дао Дэ Цзин.

D D D Dsus2 Dsus4 D  D D D D Dsus4 D Dsus4 D

      D
В пустыне бредут верблюды
   D                              D 
У каждого из них что-то своё на уме.

D D D Dsus2 Dsus4 D  D D D D Dsus4 D Dsus4 D

         D
Один знакомый тоже шёл на Северный полюс
    D                              D 
Оказался предпринимателем в Костроме.

D D D Dsus2 Dsus4 D  D D D D Dsus4 D Dsus4 D

         G
Так начинания, вознёсшиеся мощно,
                G                                    D 
Сворачивают в сторону, теряют имя действия - какой срам

D D D Dsus2 Dsus4 D  D D D D Dsus4 D Dsus4 D

      A
Я не вижу причины куда-то стремиться, если в итоге ты всегда
  A
Оказываешься где-то не там.

Проигрыш: D D D D D D G G D D A A D D

     D
Я сижу на пустынной скале
      D                   D 
Наблюдаю, как плывут облака

D D D Dsus2 Dsus4 D  D D D D Dsus4 D Dsus4 D

 D
Сердце, как старый пепел
    D                     D 
Глаза, как у полного дурака

D D D Dsus2 Dsus4 D  D D D D Dsus4 D Dsus4 D

G
Я ничего не начинаю, пускай всё
   G                             D 
Течёт само по себе, как Волга-река

D D D Dsus2 Dsus4 D  D D D D Dsus4 D Dsus4 D

     A
Под лестницей сидит холодная кошка
    A                             D 
Пойду-ка спущусь выставлю ей молока

D D D Dsus2 Dsus4 D  D D D D Dsus4 D Dsus4 D

Заключение: D D D D D D D D G G D D A A D D D D D D D 
comments powered by Disqus
Наверх