Аккорды Александр Асташёнок - Я прошу звёзды

Добавлено: @romashka
Дата добавления: 31 Января 2022г.
Рейтинг:
0.0
Просмотров: 42
Транспонировать - +
Начальный проигрыш:    
    A         B           A           B
E|--9---------12(0)-------------------12(0)-7(0)-------|
B|--5--12(0)--------12(0)-7(0)--12(0)-------------7(0)-|
G|--6--------------------------------------------------|

    E    G    A    B      E     G     A     B
E|--12(0)------------7(0)-12(0)------------------------|
B|---------------------7(0)----------------------------|
G|-----------------------------------------------------|

Куплет 1:                                              
         E        D        A       B
E|-------0---------0-------0-------0-|
B|-------0--3----3-3-------0-------0-|
G|-----4-------2---------2-------4---|
D|---2------0----------2-------4-----| x2
A|-------------------0-------2-------|
E|-0---------------------------------|
        
         E        D        
Время несется как бешеный ветер,
         A       B
И солнце с луной, словно маятник вечный.
         E        D        
Но только одно постоянно на небе,
         A       B
Звезды, что вечно смотрят на мир

Проигрыш:
1) Синтезатор(Гитара):
    E   D    C     D     E   D        C     D     E
E|--0~~~~~~~-3-2-0-2-0---0~~~~~~~-0-2-3-2-3-5-3-2-0~~~~-|
B|---------------------3--------------------------------|

2) Гитара
E|-----------------------------------------------|
B|-----------1-0----------------------1-0-1-3~~~-|
G|-------2-4-----2----------------2-4------------|
D|----0------------0---------2-0-----------------|
A|----0--------------------2---0-----------------|
E|-0---------------------0-----------------------|

Куплет 2:
         E                   D
Тихо мерцают, хранят в себе тайны,
         A              B
Помнят они даже мироздание.
         E                   D
И я хочу знать, расскажите мне, звезды,
         A              B
Что же вы видели в гордом молчании.

Припев:
     C#m  F#m              C#m F#m
Я прошу, звезды, поведайте мне тайны,
     E     F#m    A      B
О которых знаете только вы.
     C#m  F#m              C#m F#m
Я хочу просто, стать звездою малой,
     E     F#m    A      B
Чтоб увидеть сверху, как устроен мир.

Проигрыш:
1) Синтезатор(Гитара):
    E   D    C     D     E   D        C     D     E
E|--0~~~~~~~-3-2-0-2-0---0~~~~~~~-0-2-3-2-3-5-3-2-0~~~~-|
B|---------------------3--------------------------------|

2) Гитара
E|-----------------------------------------------|
B|-----------1-0----------------------1-0-1-3~~~-|
G|-------2-4-----2----------------2-4------------|
D|----0------------0---------2-0-----------------|
A|----0--------------------2---0-----------------|
E|-0---------------------0-----------------------|

Куплет 3:
         E                   D
Но лишь молчание ответом мне было,
         A              B
Не скажут ни слова ночные светила.
         E                   D
И тихо мерцают, загадочно глядя,
         A              B
Словно хотят мне что-то сказать.

Припев:
     C#m  F#m              C#m F#m
Я прошу, звезды, поведайте мне тайны,
     E     F#m    A      B
О которых знаете только вы.
     C#m  F#m              C#m F#m
Я хочу просто, стать звездою малой,
     E     F#m    A      B
Чтоб увидеть сверху, как устроен мир.

Проигрыш 2:
Синтезатор(Гитара): 
    A       B       A      B       A         B          A          B
E|--14--------------0--------------5-------------------------------14--16-17-|
B|--------2-0---2-4----4-5-7---5-4-----12-14-12---14-16-17---16-17-----------|
G|---3--3--------------------------------------------------------------------|

Припев:
     C#m  F#m              C#m F#m
Я прошу, звезды, поведайте мне тайны,
     E     F#m    A      B
О которых знаете только вы.
     C#m  F#m              C#m F#m
Я хочу просто, стать звездою малой,
     E     F#m    A      B
Чтоб увидеть сверху, как устроен мир.

Концовка: E F#m A B E            

Красивее когда аккорды поставлены так:
A:    E|--0----|   B:  E|--0----|   
      B|--5----|       B|--7----|   
      G|--6----|       G|--8----|   
      D|--7----|       D|--9----|   
      A|--7----|       A|--9----|   
      E|--0----|       E|--0----|   

G:    E|--0----|  D:   E|--0----|  
      B|--3----|       B|--3----| 
      G|--4----|       G|--2----| 
      D|--5----|       D|--0----|
      A|--5----|       A|--0----|
      E|--0----|       E|--0----|
Наверх