Аккорды Александр Новиков - Шансоньетка

Добавлено: @vitos
Дата добавления: 22 Апреля 2013г.
Рейтинг:
0.0
Просмотров: 1 136
Транспонировать - +
E|-------------------------------------------------------------------|
B|-9-10-12--9\\12---121212121212-15-12-13--9-10-12--10----------------|
G|------------------------------------------------------11-10-9------|
D|--------------------------------------------------------------12-10|
A|-------------------------------------------------------------------|
E|-------------------------------------------------------------------|

Am
Вечер по стеклу размазан,
                     E
На десерт дают стриптиз.
Раздевается не сразу:
                       Am
Снизу вверх и сверху вниз. 
Ах, какая, ух, какая!
G             C  A
Языки защелкали.
Dm                   Am
В яркий свет себя макая, 
F           E    Am
И глазенки щелкали.


Припев:

       Am        Dm Dm\\C Dm\\H Dm\\A        G       C        
Шансоньетка-а-а-а,                   заведенная юла.
    
Am     Dm                   G            C
Шансоньетка-а-а-а,  не до углей, не дотла - 
     A             Dm F         E  Am
Выгорает до окурочка, дурочка!


Не столкнусь с тобой в метро я
И не увяжусь пешком.
Здесь ползала землю роет,
Норовит тряхнуть мешком.
И ни слез в тебе, ни страха,
Ни влечения к рублю.
Ну давай еще полвзмаха - 
И я тебя почти люблю!

Но чего не будет точно,
Ни по просьбе, ни на спор.
В самом издыхании ночи
В самый шапочный разбор.
Передушен, напомажен,
Зябко окунаясь в пыль,
Твой окурок рядом ляжет
С недокуренным моим.

Соло:

E|----------------------------------------------------------|
B|--------------------------------10-9-8--------------------|
G|-22222--22444-444-5555--7-8-9--\\-------9-8----------------|
D|-------------------------------------------10-9-7---------|
A|---------------------------------------------------10-8-7-|
E|----------------------------------------------------------|


E|-------------7-\\12----------------------------------------|
B|-----------9------12---1210---------------------\\13-12-\\13|
G|---------9-----------------12109-9-----------79-----------|
D|-----6-9--------------------------121097-7910-------------|
A|-6p7------------------------------------------------------|
E|----------------------------------------------------------|

E|------------------------------------------------------10--|
B|----------------------------------------------------------|
G|-22222--22444-444-5555--7-8-9------4-5-6-7-8-9-9---\\7-----|
D|-------------------------------5-7------------------------|
A|----------------------------------------------------------|
E|----------------------------------------------------------|

E|-8-7-8---------------------------------|
B|-------10--10-9------------------------|
G|----------------10-9-7-----------------|
D|-----------------------10-8-7----------|
A|-----------------------------10-8-7\\\\--|
E|---------------------------------------|
Наверх