Аккорды Алексей Костюшкин - Ожили

Добавлено: @romashka
Дата добавления: 05 Июня 2022г.
Рейтинг:
0.0
Просмотров: 50
Транспонировать - +
Em       Em/G   C       Bm7 
1-----0-|----0-|---0-0-|---111-|-----0-|----0-|---0-0-|---111-|
2-----0-|----0-|---0-0-|---000-|-----0-|----0-|---0-0-|---000-|
3-----0-|----0-|---0-0-|---111-|-----0-|----0-|---0-0-|---111-|
4-------|------|-------|-------|-------|------|-------|-------|
5-2-----|--2---|--3----|-1-----|-2-----|--2---|--3----|-1-----|
6-------|-3----|-3-----|-------|-------|-3----|-3-----|-------|

1-11------9------6---------
2-11------9------6---------


Em      Em/G     C Bm7
Ожили, братец, ожили
Em       Em/G      C    Bm7
Сквозь придорожные ковыли
Am      Am/G        Am/F#       Bm7   
Перезагрузка, возвращение, прощение
Em Em/G  C Bm7
         Ой-ли...

Ожили, братец, ожили
Казалось бы хватит, пожили
Отравленной стрелой любовь тебе в душу
Хотел, дорогой - накося кушай

Am            D
А там, за холмом
G               C
Такой красивый закат
Am              Bm7
Такой красивый закат
Em                       E7
Пойдем, погуляем, брат, пойдем

Она будет ждать
А не дождется - пускай...
Ты душу не отпускай
Так тяжело воскресать

Ожили, братец, ожили
Милый ты мой Сальвадор Дали
Новое полотно, душа окровавлена
Опять Бородино оставлено

Ожили, братец, ожили
Пусть не совсем хорошие
Нас любят такие такими, какие мы есть
Хвала им и честь

А там, за холмом
Такой красивый закат
Такой красивый закат
Пойдем, погуляем, брат, пойдем
Она будет ждать
А не дождется - пускай...
Ты душу не отпускай
Так тяжело воскресать

Ожили, братец, ожили
Чувствую, мать их, кожею
Ху-вые новости, новости тоже
Отпустят скорости немного попозже

Ожили, братец, ожили!
Мосты не все еще сожжены
Один остался, да хрен с ним, с полезным
Я за-бался! Ай да по лезвию!...

А там, за холмом
Такой красивый закат
Такой красивый закат
Пойдем, погуляем, брат, пойдем
Она будет ждать
А не дождется - пускай...
Ты душу не отпускай
Так тяжело воскресать

Она будет ждать
Она дождется, пускай
И душу ты отпускай
нам не впервой воскресать

Ожили, братец, ожили...
Наверх