Аккорды Алекша Нович - Ромашки

Добавлено: @romashka
Дата добавления: 04 Февраля 2021г.
Рейтинг:
0.0
Просмотров: 70
Транспонировать - +
--Вступление & Заключение--
С каппо:
chrd|    Am7       C+7        Em        Em7 
e---|----------------------------------------------------------------------
B---|-------6-----6---------5-----5---------5-----5---8-----8-----8--------
G---|-----5-----5---------5-----5---------5-----5---------5-----5----------  x2
D---|---7-----7-----7---7-----7-----7---7-----7-----7---7-----7-----7------
A---|-5---------------8---------------7------------------------------------
E---|----------------------------------------------------------------------

Без каппо:
chrd|       Dm7             F+7             Am             Am7       
e---|-------1-----1---------0-----0---------0-----0---3-----3-----3--------
B---|-----1-----1---------1-----1---------1-----1---------1-----1----------
G---|---2-----2-----2---2-----2-----2---2-----2-----2---2-----2-----2------ х2
D---|-0---------------3---------------2------------------------------------
A---|----------------------------------------------------------------------
E---|----------------------------------------------------------------------


--боем--
Am7 
Единственное что я понял,
C+7
Что Солнце на вкус - как заваренная ромашка, 
Em
Которую разрывая по лепестку
Em7
Каждый цветок я кидаю в чашку
Am7                                  C+7
В надежде на то, что именно вот этот красивый окажется тем самым крайним 
Em                         Em7              
Освободившим меня от моего безумного труда поисков давних.
Am7
Но нет. Я отрываю твоё последнее слово
C+7
И кидаю его в кучу закрытых дел.
Em                Em7
Ты была делом № 812, я этого не хотел.
Am7                      C+7
Я правда не хотел этого, я надеялся что всё получится,
Em
Но теперь я заливаю прошлое кипятком,
Em7
Чтобы выпить его и не мучится.
Am7                                C+7
И вот стоя у окна я делаю обжигающий глоток, из тех кто был моим Солнцем,
Em                       Em7
Ловя, как тысячи забытых поцелуев пар от чашки своим лицом.
Am7               C+7
Снова небо ясное, всё будет хорошо Сашка.
Em ...
Как же забавно всё таки, что Солнце на вкус как заваренная ромашка...

C                             Am
Единственное что я понял, что Солнце на вкус как заваренная ромашка
Em                               Em7
И совсем не тяжко делать горячим обжигающим солнечным паром затяжку,
C                        Am
Выливать кипяток полевых цветов себе на кожу
Em                                    Em7
И смотреть, как она молодая осторожно сворачивается в морщины. Можно
C                                  Am
я когда-нибудь перестану пить этот обжигающий моё эго напиток,
Em                                     Em7
Сваренный из сшивших мои закрытые дела отношений ниток?
C                                               Am
И я ведь не умею пить, и поэтому мне это всё не утопить в вине литре
Em                                         Em7
И моему чистому разуму не скрыть это всё в амфетаминовом трипе.
C                                     Am
И не липни ко мне мысль о воде алой в моей горячей ванной. Да,
Em                                Em7
Я такой усталый, но уйди-уйди, не шепчи мне, лукавый.
C                                       Am
Мама, разве может быть на самом деле всё так странно.
Em ..
Ладно, пойду умоюсь. Закрываю окно. К осени становится прохладно.

--перебором--
Am7                                            C+7
И иногда мне кажется, что всё это оставит меня только на балкончике где-нибудь в Париже,
Em                                                           Em7
Когда я выйду на него выпить не прокисший настой из ромашек, а чашку кофе. И чуть выше,
Am7                                         C+7 
На соседний балкон выйдешь ты, не цветок, а измученный поисками человек.
En                                                         Em7
Судорожно вспоминая свой корявый французский, я скажу тебе «Bonjur», а ты устало протянешь  «Привет…

--боем--
Am7 C+7 Em Em7

БОЙ:
X - вверх
О - вниз
| - смена аккорда
О О | X X О О X О X |... повторяется 

Аккорды написаны с учётом каподастра на 5-м ладу. (т.е без каппы Dm7, а с каппо - Am7).
Если хотите играть без каппы, то для оригинального звучания измените тональность на +5
Наверх