Аккорды Алёша Митюшкин - Вальс

Добавлено: @romashka
Дата добавления: 13 Августа 2019г.
Рейтинг:
0.0
Просмотров: 17
Транспонировать - +
Проигрыш:
A||-7--7--9--10--7--7--9--10-|-7--7--9--10--7--7--9--10-|
E||--------------------------|--------------------------|

A-7--7--9--10--7--7--9--10-|-7--7--9--10--7--7--9--10-|
E--------------------------|--------------------------|

A-------10--10--9--------|-------10--10--9---|
E-8--8-------------------|-8--8--------------|

A-------10--10--9--------|--------10--10--12---|
E-8--8-------------------|--8--8---------------|

G               A#
Явился он на стройном бале 
D#                D
В блестяще сомкнутом кругу. 
G           A#
Огни зловещие мигали, 
D#                 D
И взор описывал дугу.

C A#

A#           D        A      C 
Всю ночь кружились в шумном танце, 
A#           D      A      C 
Всю ночь у стен сжимался круг. 
A#      D        A      C 
И на заре - в оконном глянце 
A#      D        A      C 
Бесшумный появился друг.

A# A

G5                  A#5
Он встал и поднял взор совиный, 
D#5                  D5
И смотрит - пристальный - один, 
G5                  A#5
Куда за бледной Коломбиной 
D#5                  D5
Бежал звенящий Арлекин.

C A#

A#           D        A      C 
Всю ночь кружились в шумном танце, 
A#           D      A      C 
Всю ночь у стен сжимался круг. 
A#      D        A      C 
И на заре - в оконном глянце 
A#      D        A      C 
Бесшумный появился друг.

A# A

Соло:
e-5--------5--7--8--12b--|--8S----------------|
B------------------------|--------------------|
G------------------------|--------------------|
     
e-15--------15--12----------|--12----------------|
B-------------------14--12--|--------------------|
G---------------------------|--------------------|
           
e---------------7--8--14b--|---------------------|
B-10--------10-------------|--13S----------------|
G--------------------------|---------------------|

e-15--------15--12----------|--12--10--------------------|
B-------------------14--12--|----------10--8--------0----|
G---------------------------|-----------------7--6-----2-|

Gm                   A#m
А там - в углу - под образами, 
D#m                  Dm
В толпе, мятущейся пестро, 
Gm             A#m
Вращая детскими глазами, 
D#m                  Dm
Дрожит обманутый Пьеро.

C A#

A#           D        A      C 
Всю ночь кружились в шумном танце, 
A#           D      A      C 
Всю ночь у стен сжимался круг. 
A#      D        A      C 
И на заре - в оконном глянце 
A#      D        A      C 
Бесшумный появился друг.

Outro: A# A  
comments powered by Disqus
Наверх