Аккорды Алёша Митюшкин - Всё ли спокойно в народе

Добавлено: @romashka
Дата добавления: 13 Августа 2019г.
Рейтинг:
0.0
Просмотров: 9
Транспонировать - +
Проигрыш:
E|-------1--1--6--6-------|
B|-0--0--------------6--6-|
G|------------------------|
D|------------------------|

E-------1--1--6--6-------|-------------3--3-------|
B-0--0--------------6--6-|-------4--4--------4--4-|
G------------------------|------------------------|
D------------------------|-6--6-------------------|

E-------------3--3-------|
B-------4--4--------4--4-|
G-1--1-------------------|
D------------------------|

B 
- Всё ли спокойно в народе?
G#
- Нет. Император убит.
B
Кто-то о новой свободе
G#
На площадях говорит.

B7
- Все ли готовы подняться?
G#5
- Нет. Каменеют и ждут.
B7
Кто-то велел дожидаться:
G#5
Бродят и песни поют.

C#                     E5
- Кто же поставлен у власти?
Bb                   A
- Власти не хочет народ.
C#5                     E5
Дремлют гражданские страсти:
F#5                  D
Слышно, что кто-то идёт.

B7                      
- Кто ж он, народный смиритель?
G#5
- Тёмен, и зол, и свиреп:
B7                    
Инок у входа в обитель
G#5
Видел его - и ослеп.

B
Он к неизведанным безднам
G#
Гонит людей, как стада...
B
Посохом гонит железным...
G#
- Боже! Бежим от Суда!
comments powered by Disqus
Наверх