Аккорды Алёша Митюшкин - Мгновения

Добавлено: @romashka
Дата добавления: 13 Августа 2019г.
Рейтинг:
0.0
Просмотров: 9
Транспонировать - +
Проигрыш:
D||------------------------|
A||-------2--2--3--3-------|
E||-0--0--------------3--3-|

D------------------------|
A-------2--2--3--3-------|
E-0--0--------------3--3-|

D-------1--1--2--2-------|
A-------------------2--2-|
E-4--4-------------------|

D-------0--0--1--1-------|
A-------------------1--1-|
E-3--3-------------------|
Мгновения

E
Не думай о секундах свысока.
G#                      G
Наступит время, сам поймешь, наверное,-
E
Свистят они, как пули у виска,
G#
Мгновения,
G
Мгновения,
E
Мгновения.

E5
У каждого мгновенья свой резон,
G#5                    G5
свои колокола, своя отметина,
E5
Мгновенья раздают — кому позор,
G#5                    G5
кому бесславье, а кому бессмертие.

E
Мгновения спрессованы в года,
G#                          G
Мгновения спрессованы в столетия.
E
И я не понимаю иногда,
G#5                    G5
где первое мгновенье, где последнее.

E
Не думай о секундах свысока.
G#                      G
Наступит время, сам поймешь, наверное,-
E
Свистят они, как пули у виска,
G#
Мгновения,
G
Мгновения,
E
Мгновения.

Соло:
e------------------------|
B-------------1--1--0--0-|
G------------------------|
D-2--2--2--2-------------|
 
e------------------------|
B-------------1--1--0--0-|
G------------------------|
D-2--2--2--2-------------|

e-------------0--0-------|
B-------------------4--4-|
G-1--1--1--1-------------|
D------------------------|

e------------------------|
B-------------4--4--3--3-|
G-0--0--0--0-------------|
D------------------------|

E5
Из крохотных мгновений соткан дождь.
G#5                        G5
Течет с небес вода обыкновенная. 
E5
И ты, порой, почти полжизни ждешь,
G#5                        G5
Когда оно придет, твое мгновение.

Em
Придет оно, большое, как глоток,
G#m                        Gm
Глоток воды во время зноя летнего.
Em
А в общем, надо просто помнить долг
G#m                        Gm
От первого мгновенья до последнего.

E
Не думай о секундах свысока.
G#                      G
Наступит время, сам поймешь, наверное,-
E
Свистят они, как пули у виска,
G#
Мгновения,
G
Мгновения,
E
Мгновения.
comments powered by Disqus
Наверх