Аккорды Алёша Митюшкин - Spider - Man

Добавлено: @romashka
Дата добавления: 24 Июня 2020г.
Рейтинг:
0.0
Просмотров: 31
Транспонировать - +
Проигрыш:

D |-----------3-----1--0-------|-----------6-----4--3-------|
A |--1-----1-------------------|--4-----4-------------------|
E |----------------------------|----------------------------|

----------------------------|-----------8-----6--8-------||
-----------6-----4--3-------|--6-----6-------------------||
--4-----4-------------------|----------------------------||

Куплет 1:

A#               C#
Скучным ботаном был я,
G#                       D#
Почти все шарахались от меня.
A#               C#
Не было у меня много друзей-
G#                       D#
Лишь Гарри Озборн и ЭмДжэй.

A#               C#
Но однажды укусил меня
G#                       D#
Неогенный паук и теперь я-
A#                       C#
Летаю по Нью-Йорку на паутине своей,
G#                         D#
Спасаю от трагедий я беззащитных людей.

Припев:

C                  A
Spider-Man, Spider-Man
C                  A
Does whatever a spider can
C                  A
Spins a web, sweet surprise
C                  A
Catches thieves, just like flies
C      A         D         C#
Look out! Here comes the Spider-Man!

Проигрыш.

Куплет 2:
A#               C#
Мощь врага все сильней-
G#                       D#
В опасности Гарри и ЭмДжэй!
A#               C#
Гоблин собирает "Зловещую Шестерку".
G#                       D#
Мне остается бороться и только-

A#               C#
СМИ настроили народ против меня,
G#                       D#
Теперь все охотятся на паука.
A#               C#
Даже в одиночку не дам я городу
G#                       D#
Вгуститься в туман-зла и холода.

Припев.

Соло 1 : 
E |-----------1----------------|-----------4-----2--1-------|
B |-----------------4--3-------|--2-----2-------------------|
G |--3-----3-------------------|----------------------------|

----------------------------|-----------6-----4--6-------|
-----------4-----2--1-------|--4-----4-------------------|
--1-----1-------------------|----------------------------|

--6-----6--13----11-10------|--9-----9--16----14-13------|
----------------------------|----------------------------|
----------------------------|----------------------------|

-----------11----9--8-------|--11----11-18----16-18------|
----------------------------|----------------------------|
--13----13------------------|----------------------------|

--6-----6--13----11-10------|--9-----9--16----14-13------|
----------------------------|----------------------------|
----------------------------|----------------------------|

-----------11----9--8-------|--11----11-18----16-18------||
----------------------------|----------------------------||
--13----13------------------|----------------------------||


Куплет 3:
A#               C#
Костюм разорван-я весь в крови
G#                       D#
Силы на исходи-Помоги,
A#               C#
Мадам Паутина, доверься мне
G#                       D#
Я спасу вселенную-я Spider Man!

Соло 2 : 

B |-----------8L----------8----|--7--------6L----------6----|
G |--5-----5-------------------|----------------------------|
D |--7-------------------------|----------------------------|

-----------8L----------8----|--7--------6L----------6----|
--------5-------------------|----------------------------|
--7-------------------------|----------------------------|

-----------8L----------8----|--10L10s--------------------||
--------5-------------------|----------------------------||
--7-------------------------|----------------------------||
Наверх