Аккорды Алёша Митюшкин - Will Never Die

Добавлено: @romashka
Дата добавления: 24 Июня 2020г.
Рейтинг:
0.0
Просмотров: 34
Транспонировать - +
Проигрыш: 
E C B C D

Соло 1:
B |--17----17-15-15-13-13-12---|----------------------------|
G |----------------------------|--16----16-14-14-12-12-10---|

--17----17-15-15-13-13-12---|----------------------------|
----------------------------|--16----16-14-14-12-12-10---|

--17----12-10-8--6-----6----|--17----12-10-8--6-----6----|
--------------------9-------|--------------------9-------|

--17----17-15-15-13-13-12---|----------------------------||
----------------------------|--16----16-14-14-12-10-x----||

Куплет 1:

E            C        B       C   D
В MMXVI (Эмимиксви) мне не хватает
E       C        B       C   D
Жесткого живого Панк Рока
E            C        B       C   D
Множество рок-групп играют каверы
E            C        B       C   D
Попсу и всякую ХХХХХОООООЙЙЙ

Припев:

A#            D#
Что не умрет никогда?
F          D# C# A C#
Панк Рок! Господа
A#            D#
Что нужно этой планете
F          D# C# A C#
Хаус и Анархия

Соло 1.

Куплет 2:

E         C    B       C   D
Многие века люди спорят
E         C        B       C   D
Кто же завез панк рок в страну
E         C        B       C   D
Одни за Свина, Другие за Хоя
E          C        B       C   D
А я без дискуссий вам скажу.

Припев.

F D G A C
Панк
F D G A C
Секс
F D G A C
Дрэгс
F D G A C
Треш
F D G A C
Панки ХОЙ

Соло 2:

E |----------------------------|--6--6--8--6--8--8--10-8----|
B |--7--7--9--7--9--9--11-9----|----------------------------|
G |----------------------------|----------------------------|

----------------------------|--6--6--8--6--8--8--10-8----|
--7--7--9--7--9--9--11-9----|----------------------------|
----------------------------|----------------------------|

----------------------------|----------------------------|
-----------------9-----9----|-----------------9-----9----|
--11----13-15-17----9-------|--11----13-15-17----9-------|

----------------------------|--6--6--8--6--8--8--10-8----|-------||
--7--7--9--7--9--9--11-9----|----------------------------|--7----||
----------------------------|----------------------------|-------||
Наверх