Аккорды Алёша Митюшкин - В отеле

Добавлено: @romashka
Дата добавления: 24 Июня 2020г.
Рейтинг:
0.0
Просмотров: 69
Транспонировать - +
Проигрыш:
E D B C

Куплет 1:
B                  G
Мне было некуда идти.
C                      A#
Дешевый отель был впереди.
B                  G
Снаружи светлый, внутри теплый,
C                      A#
И какой то одинокий.

B                  G
В отеле было ни души,
C                      A#
Кроме страха и тишины.
B                  G
Ключ я взял и пошел в номер
C                      D
Но услышал как кто то помер.

Припев: 
E                  D
Кто же здесь - В отеле пустом 
B            C
Покажись! Кто есть в нем!
E                D
До утра мне не дожить
B                C
Кто заберет мою жисть?

Куплет 2:
B                  G
Долго искал я свой номер,
C                      A#
И крики мне не давали покоя
B                  G
Ведал я как кто то воет,
C                      A#
Как сзади shadows переходят!

B                  G
Комнату наконец нашел!
C                      A#
Но открыть не успел.
B                  G
Из-за угла вышел зверь,
C                      D
"И тут я слегка вспотел".

Припев.

Куплет 3
B                  G
И зверь погнал меня,
C                      A#
Собирая собой всю нечисть свою
B                  G
Не дожить мне до утра
C                      A#
Отправлюсь я в ад или рай.

B                  G
Поймали меня в подвале
C                      A#
Оборотень вышел вперед.
B                  G
Рассмеялся и сказал
C                      D
Ты теперь мой, навечно мой!

Припев.
Соло:
E |----------------------------|----------------------------|
B |--------------5--4--3-------|--------------3--4--5-------|
G |-----5--4--3-----------5----|-----5--4--3-----------5----|
D |--2-------------------------|--2-------------------------|
A |----------------------------|----------------------------|

----------------------------|----------------------------|
--------------5--4--3-------|----------------------------|
-----5--4--3-----------5----|-----2-----4----------------|
--2-------------------------|--0-----0--------2-----5----|
----------------------------|--------------3-----3-------|

----------------------------|----------------------------|
--------------3--4--5-------|--------------5--4--3-------|
-----5--4--3-----------5----|-----5--4--3-----------5----|
--2-------------------------|--2-------------------------|
----------------------------|----------------------------|

----------------------------|----------------------------||
--------------3--4--5-------|----------------------------||
-----5--4--3-----------5----|-----2-----4----------------||
--2-------------------------|--0-----0--------2-----5----||
----------------------------|--------------3-----3-------||
Наверх