Аккорды Алёша Митюшкин - ДЦП

Добавлено: @romashka
Дата добавления: 24 Июня 2020г.
Рейтинг:
0.0
Просмотров: 62
Транспонировать - +
Проигрыш:

G |----------------------------|----------------------------|
D |----------------------------|----------------------------|
A |----------------------------|--------5-----3-----2-------|
E |--5--5--7-----8-----7-------|--3--3----------------------|

----------------------------|----------------------------|
----------------------------|--5--5--7-----9-------------|
--3--3--5-----7-----5-------|--------------------7-------|
----------------------------|----------------------------|

----------------------------|----------------------------|
----------------------------|----------------------------|
----------------------------|--------5-----3-----2-------|
--5--5--7-----8-----7-------|--3--3----------------------|

----------------------------|--------10----9-----2-------||
----------------------------|--7--7----------------------||
--3--3--5-----7-----5-------|----------------------------||
----------------------------|----------------------------||

Куплет 1:

G        A#  G           C
Работник я сельского труда
G        A#  G           C
На тракторе с утра до вечера.
G        A#  G           C
Норму честно выполняю свою
G              A#     G           C
По выходным в музей-не курю и не пью.

G        A#  G           C
Вежливый я по натуре своей
G        A#  G           C
Уважаю я стариков и детей.
G        A#  G           C
Но это все идет до того,
G        A#  G        D
Покуда я не поймаю ЕГО!

Припев:

G            A#    C
ДЦП!- Я выбираю тебя!
G            C     A#
ДЦП!- Подсознательно!
G            A#    C
ДЦП!- Неосознанно!
G            C   D
ДЦП!- Рождается!

A           G           C          D
У меня ДЦП, У меня ДЦП, У меня ДЦп-П!П!П!П!П!
A           G           C          D
Такое творю, мое уру-ру теперь не рабо-тает.
A           G           C             D
Совершу ДТП, Спою ДДТ, у меня приступ Д!Ц!П!
A           G           C          D
Как паровоз дымлю, как дьявол Пью.
A           G           C          D
Моя крыша взле-тает!

D C D B

Куплет 2:

G        A#  G           C
С людьми контакта нет у меня.
G        A#  G           C
Мой юмор не доходит до их ума.
G        A#  G           C
С одними зверюшками я дружу.
G        A#    G                D
С поросенком хрюшей и коровой му-му!

Припев.
Проигрыш.

Куплет 3 :

G        A#  G           C
Разгильдяй я сельских трудов.
G        A#  G           C
В колхозе больше нет свиней и коров.
G        A#  G        C
Всех зверюшек испугал я.
G        A#  G           C
И они убежали в чужие края.

G        A#  G     C
Люди не успели уйти
G        A#  G         C
ДЦП остановил их на пути.
G        A#  G          C
Отныне они в моей власти
G        A#     G           D
Не спастить им от психозной напасти!

G            A#    C
ДЦП!- Я выбираю тебя!
G            C     A#
ДЦП!- Подсознательно!
G            A#    C
ДЦП!- Неосознанно!
G            C   D
ДЦП!- Рождается!

A           G           C          D
У меня ДЦП, У меня ДЦП, У меня ДЦп-П!П!П!П!П!
A           G           C          D
Сжигаю людей, стариков и детей я ем и нена-вижу!
A           G                   C                      D
Ору я как черт, никто не уснет, когда у меня приступ ДЦП!
A           G                   C          D
Приду за тобой, рассмешу и убью всех тех, кого увижу

D C D B
Наверх