Аккорды Алёша Митюшкин - Протестант

Добавлено: @romashka
Дата добавления: 24 Июня 2020г.
Рейтинг:
0.0
Просмотров: 48
Транспонировать - +
Проигрыш
G |----------------------------|----------------------------|
D |--------7--------7----------|--------7--------7----------|
A |-----7--------7-------------|-----7--------7-------------|
E |--5--------5--------5--5----|--5--------5--------5--5----|

----------------------------|----------------------------|
--------10-------10---------|--------10-------10---------|
-----10-------10------------|-----10-------10------------|
--8--------8--------8--8----|--8--------8--------8--7----|

----------------------------|----------------------------|
--------7--------7----------|--------7--------7----------|
-----7--------7-------------|-----7--------7-------------|
--5--------5--------5--5----|--5--------5--------5--5----|

----------------------------|----------------------------|
--------10-------10---------|--------10-------10---------|
-----10-------10------------|-----10-------10------------|
--8--------8--------8--8----|--8--------8--------8--7----|

----------------------------|----------------------------|
--------5--------5----------|--------5--------5----------|
-----5--------5-------------|-----5--------5-------------|
--3--------3--------3--3----|--3--------3--------3--3----|

--------7--------7----------|--------7--------7----------|
-----7--------7-------------|-----7--------7-------------|
--5--------5--------5--5----|--5--------5--------5--4----|
----------------------------|----------------------------|

----------------------------|----------------------------|
--------5--------5----------|--------5--------5----------|
-----5--------5-------------|-----5--------5-------------|
--3--------3--------3--3----|--3--------3--------3--3----|


--------7--------7----------|--7----||
-----7--------7-------------|--7----||
--5--------5--------5--5----|--5----||
----------------------------|-------||

Куплет 1:

F#          A
Играл Rock&Roll
E      B
Протестант
F#          A
В старом убогом 
E      B
гараже.
F#          A
А люди слушали
E      B
ценный шлак,
F#          A
Ненавидя парня 
E      B
век уже.

Припев:

A      C
Жив пока 
G           D
Слышит тишина! 

Куплет 2:

F#          A
Игнорировали 
E      B
Протестанта-
F#          A
Глухой и скучный
E      B
тот народ.
F#          A
Громче играл 
E      B
музыкант 
F#          A
И кричал 
E      B
свой исход.

A      C
Жив пока 
G           D
Слышит тишина! 

Соло:

D |----------------------------|--------------6-----5-------|
A |--------------7-----6-------|----------------------------|
E |--5--5--7--7----------------|--5--5--7--7----------------|

----------------------------|--------------------0--0----|
--------------7--7--6--6----|--5--5--3--3--2--2----------|
--5--5--7--7----------------|----------------------------|

----------------------------|--------------6-----5-------|
--------------7-----6-------|----------------------------|
--5--5--7--7----------------|--5--5--7--7----------------|

----------------------------|--------------------2--2----||
--------------7--7--6--6----|--5--5--3--3--2--2----------||
--5--5--7--7----------------|----------------------------||
F#          A
Казнить решил
E      B
тот народ
F#          A
Проклятого старого
E      B
протестанта
F#          A
За то что не слушает
E      B
"Господ"
F#          A
Эстрады у которых 
E      B
нет таланта.

A      C
Жив пока 
G           D
Слышит тишина! 
Наверх