Аккорды Алёша Митюшкин - Пускай

Добавлено: @romashka
Дата добавления: 26 Июня 2020г.
Рейтинг:
0.0
Просмотров: 20
Транспонировать - +
Проигрыш:
E |----------------------------------------|
B |-----------0--------3--------1----------|
G |--------2-----2--------2--------2-------|
D |-----2-----------2--------2--------2----|
A |--0-------------------------------------|
E |----------------------------------------|

----------------------------------------|
-----------1--------3--------0----------|
--------0-----0--------0--------0-------|
-----2-----------2--------2--------2----|
--3-------------------------------------|
----------------------------------------|

-----------------------------0----------|
-----------0--------3-----------0-------|
--------------0--------0-----------0----|
--------0--------0--------0-------------|
-----2----------------------------------|
--3-------------------------------------|

-----------0----------------------------||
--------1-----1-----3--------0----------||
-----2-----------2-----2--------2-------||
--3-----------------------3--------3----||
----------------------------------------||
--1-------------------------------------||

Куплет 1:

A
Прощайте! пусть ветер свистит, свистит.
C
Больше ему уж не зваться злым.
G
Пускай Грядущее здесь грустит:
F
как ни вертись, но не стать Былым.

A
Пусть Кант-постовой засвистит в свисток,
C
а в Веймаре пусть Фейербах ревет:
G
"Прекрасных видений живой поток
F
щелчок выключателя не прервет!"

Проигрыш 2: 

D |-----3--1-------|--0--1----------|----|----||
A |--3--------0----|--------1--0----|----|----||
E |--1-------------|----------------|----|----||

Припев:
A
Возможно, так. А возможно, нет.
C
Во всяком случае (ветер стих),
G
как только Старушка погасит свет,
D
я знаю точно: не станет их.

Проигрыш 3:

G |----------------------------|----------------------------|
D |-----------7--------8--7----|--------10-------------10---|
A |--7--7--7--------7----------|--10-10----10----9--10------|
E |--5--5--------5-------------|--8--8--------8-------------|

----------------------------|--------------7b------------||
--------------5b----5-------|-----7b----7-----7-----7----||
--5--5-----5-----5-----5----|--5-----5-----------5--5----||
--3--3--3-------------------|----------------------------||

Соло 1:

G |----------------------------|----------------------------|
D |----------------------------|--------------10-9----------|
A |--------7-----8-----7-------|--------10-------------10---|
E |--5--5-----5-----5-----5----|--8--8-----8--------8-------|

--------------------5s-4----|----------------------------||
--------------5-------------|--------------3-------------||
--------5-------------------|--3-----------------3--0----||
--3--3-----3-----3----------|--1--1--x--x-----x----------||

A
Пусть жизнь продолжает, узрев в дупле
C
улитку, в охотничий рог трубить,
G
когда на скромном своем корабле
F
я, как сказал перед смертью Рабле,

Проигрыш 2:
отправлюсь в "Великое Может Быть"...

Припев.

Соло 2 :
E |--12-12-12-17----12-18-17---|--15-15-20-15----14-15-20---|
B |--10-10---------------------|----------------------------|
G |--------------14------------|--17-17-------17------------|
D |----------------------------|----------------------------|

--------------15b---15------|-----17b---17-22b------17---||
-----------15----15----15---|--15----15-------22---------||
--19-19---------------------|--------------------19-19---||
--17-17-17------------------|----------------------------||
Наверх