Аккорды Алёша Митюшкин - Поколение

Добавлено: @romashka
Дата добавления: 26 Июня 2020г.
Рейтинг:
0.0
Просмотров: 35
Транспонировать - +
Проигрыш

D |--------------------2-------|--------------------2-------|
A |--------------------0-------|--------------------0-------|
E |--2--2--4--0--1--2----------|--2--2--4--0--1--2----------|

--------------------2-------|-----------4-----------2----|----|----||
--------------------0-------|-----4-----------2----------|----|----||
--2--2--4--0--1--2----------|--2-----2-----0-----0-------|----|----||

Куплет 1:

F#             F
Я слышал о поколение
E                 A
Двухличностных людей.
F#             F
Они жили без забот
E          A
Тревог и идей.

F#             F
Матрица повсюду 
E         A
Их окружала.
F#             F 
Жизнь доступную 
E         A
Им создавала.

F#             F
Но то поколение
E                A 
Двухличностных людей
F#             F
Скрывалось под маской
E              A
Социальных сетей.

F#             F
Маска та была
E              A
Сделана из паутины,
F#            F
Соединяющая всех
E               A
Их в обманутом мире.

Припев: 

D              G
Поколение виртуального
Мира
A             B
От себя всю реальность
Закрыло.

D 
В своем ложном мире
          G
От друг друга все скрыли,
A
О своем будущем
G              F# F E A
Напрочь забыли.


Куплет 2:

F#            F
Нет, они не сразу 
E          A
обитали такими.
F#             F
Были слезы и смех...
E           A
Они были живыми!

F#             F
Горечь и радость
E              A
В их глазах горела.
F#             F
Душа расцветала,
E              A
Танцевала и пела.

F#             F
Стали они меняться
E                A
Как показали возможность,
F#             F
Скобкой общаться
E              A
И забыть про сложность.

F#             F
Дальше не помнили
E              A
И знать не желали
F#             F
Историю, корни
E                    A
И в пропасть они пропали.

Припев.
Соло:
E |--14-14-16----------24------|--------------------24------|
B |-----------17-18-19-22------|--------21----------22------|
G |----------------------------|--23-23----21-22-23---------|

--------------------24------|-----21----0-----19----24---|
--------21----------22------|----------------------------|
--23-23----21-22-23---------|--23----23----21----21------|

----------------------------|
--------13s12-------12s11---|
--11----------10------------|

--------------------------------------11s---12-10---|
--------------11s---9-----10s-----------------------|
--9-------------------------------------------------|



----------------------------|
--------13s12-------12s11---|
--11----------10------------|

--------------------------------------11s---12-10---||
--------------11s---9-----10s-----------------------||
--9-------------------------------------------------||
Наверх