Аккорды Алёша Митюшкин - Зеркала

Добавлено: @romashka
Дата добавления: 26 Июня 2020г.
Рейтинг:
0.0
Просмотров: 30
Транспонировать - +
Проигрыш:

G |----------------------------|----------------------------|
D |----------------------------|----------------------------|
A |--------0-------------------|-----------2----------------|
E |--0--3-----5b---------------|--0--3--0-------------------|
           W
-----------7----------------|--6--5--4--2----------------||
----------------------------|----------------------------||
--------0-------------------|----------------------------||
--0--3----------------------|----------------------------||

----------------------------|----||
-----5-----5-----5----------|----||
--3-----3-----3-----2--0----|----||
----------------------------|----||

Куплет 1:

E     A  E       B
Зеркала-вот чудеса?
E       D C# C B A
Отражение меня и тебя
E        A     E       B
Все наоборот происходит в них
E                     D C# C B A
Вот бы попасть в стеклянный тайник.

E          A   E          B
Если по идее-все там наоборот
E           D     C# C B A
То мне интересно-как ты там живешь?
E        A       E       B
Какие законы царят в стекле
E           D       C# C B A
Вот бы побывать в зазеркалье.

Припев:

C                           D
Просто Мы с тобой живем по разные стороны
B                    A
Сменим ракурс все ответы будут найдены
C                     D
Для этого дела нам помогут зеркала
B                          A
Посмотри на проблему с другого угла.

Куплет 2:
E               A   
Зеркальный лабиринт
E              B
Расставили вокруг
E        D 
Сами запутались,
C# C       B    A
Любезный, мой друг

E               A 
Похоже, не судьба
E                 B
Быть нам вместе с тобой
E               D 
Оставайся в зазеркалье
C#    C        B    A
Сохрани хоть свой покой.

Припев.
Соло 1:

B |-----------------------5----|-----------------------12---|
G |-----------------9--8-------|-----------------11-9-------|
D |-----------7--7-------------|-----------9--9-------------|
A |--------0-------------------|----------------------------|
E |--0--3----------------------|--0--3--0-------------------|

-----------------5--8--6----|--------------2--3--4--6----|----|----||
-----------2--2-------------|--6--5--4--2----------------|----|----||
-----------0----------------|----------------------------|----|----||
--------0-------------------|----------------------------|----|----||
--0--3----------------------|----------------------------|----|----||

Куплет 3:

E         A     E             B
Останусь ждать у холодного стекла
E           D         C#  C  B  A
Ты не сможешь придти,зато смогу я
E          A           E      B
Разбегусь и мигом к тебе попаду
E          D       C#  C  B  A
Твой мир примет нашу взаправду.

Припев. 
Соло 2:

B |-----11-10-11---|--12-11-15-11---||
G |--9-------------|----------------||
Наверх