Аккорды Алиса Грайт - Уходи

Добавлено: @romashka
Дата добавления: 17 Ноября 2022г.
Рейтинг:
0.0
Просмотров: 24
Транспонировать - +
[Вступление]:

      Dm          E             Am         G           F
E||-------------|--------------|---------------------|--------------|
B||----5--6-----|----------9---|------0---------0----|------0-------|
G||----------5--|----7--9------|----2---2-----2---2--|----2---2-----|
В||-------------|--------------|---------------------|--------------|
A||-5-----------|-7------------|-0-------------------|--------------|
E||-------------|--------------|-----------3---------|-1------------|

      Dm          E             Am         G           F
E||-------------|--------------|---------------------|--------------|
B||----5--6-----|----------9---|------0---------0----|------0-------|
G||----------7--|----7--9------|----2---2-----2---2--|----2---2-----|
В||-------------|--------------|---------------------|--------------|
A||-5-----------|-7------------|-0-------------------|--------------|
E||-------------|--------------|-----------3---------|-1------------|

[Куплет 1]:
     Dm                               E
Как одежду снимая, старую жизнь, и вдыхая свободу телом,
       Am           G                 F
Просто не посмотри, не оглянись, и по лезвию, весело, смело.
      Dm                         E
Необратимость рисует круги и замыкает нас в бесконечность.
       Am           G                F
Просто не оглянись, не посмотри, и с болью в обнимку в вечность.

[Припев]:
     Dm
И я опять бегу одна в пустой вагон
       E
И мне опять чертовски хочется тебя
      Am                    G
Перемотать бы все мысли, отбросить как сон
       F
И заглянуть в твои красивые глаза.

          Dm
Ты просто вычеркни меня совсем
          E
Сотри из памяти и больше не звони.
Am                   G
Поезд со скоростью летит мимо рельс,
    F
Где били в спину детка,
Dm  E             Am
Уходи, просто уходи!
Dm  E
Уходи!

[Куплет 2]:
   Dm
Это я кричала на воздух во тьме.
     E
Эти лестницы, переулки,
        Am           G
Если бы ты увидел, и посмотрел,
      F
Остановился бы хоть на минуту…
     Dm
Как одежду снимая, что было вчера.
      E
Что годами нас в сердце било.
     Am               G
Я бы не оглянулась, а дальше пошла,
     F
Не любя, не твоя, не забыла…

[Припев]:
     Dm
И я опять бегу одна в пустой вагон
       E
И мне опять чертовски хочется тебя
      Am                    G
Перемотать бы все мысли, отбросить как сон
       F
И заглянуть в твои красивые глаза.

          Dm
Ты просто вычеркни меня совсем
          E
Сотри из памяти и больше не звони.
Am                   G
Поезд со скоростью летит мимо рельс,
    F
Где били в спину детка,
Dm  E             Am
Уходи, просто уходи!
Dm  E
Уходи! 
Наверх