Аккорды Alter Bridge - Brand New Start

Добавлено: @romashka
Дата добавления: 05 Апреля 2018г.
Рейтинг:
0.0
Просмотров: 35
Транспонировать - +
TUNING: Standard - 1/2 Step Down (Eb Ab Db Gb Bb Eb)

VERSE
|-------------------------------------------0---------------------|
|---------------------------------------------0-------------------|
|-----------------0----------------------0------0--------------0--|
|----------12------------------10-----10---------------5---5p0----|
|--10--10----10--------------0----0------------------5---5--------|
|--0------0-----0----0--10-9--------9--------------3--------------|

     "Against the sky, streams of light..."

|--------------------------------0-----|
|------------------------------0---0---|
|--------------0-------------0---------|
|------5---5p0--------4---4------------|
|----5---5----------2---2--------------|
|--2--------------0--------------------|

CHORUS

|----0---0---0---0---0---0--0--|
|----0---0---0---0---0---0--0--|
|----5---4---7---6---4---5--4--| x2
|----5---5---7---7---5---5--4--|
|----3---5---5---7---5---3--2--|
|--------3-------5---3---------|

 "We will make a brand new start, from the pieces torn apart..."

     C   G   D   A   G   C  B

 "We will make a brand new start, from the pieces torn apart..."


Heres The Verse Chord Shapes

|----------------------0---|
|----------------------0---|
|--------------0---0---0---|
|---12----12---5---5---4---|
|---10----0----5---5---2---|
|---0-----9----3---2---0---|
comments powered by Disqus
Наверх