Аккорды Alter Bridge - Fortress

Добавлено: @romashka
Дата добавления: 05 Апреля 2018г.
Рейтинг:
0.0
Просмотров: 6
Транспонировать - +
Db|----------------|---------------|---------------|---------------|
Db|----------------|---------------|---------------|---------------|
Ab|----12-----12---|---12-----12---|---12-----12---|---12-----12---|
Db|--0----0-0----0-|-0----0-0----0-|-0----0-0----0-|-0----0-0----0-|
Ab|----------------|---------------|---------------|---------------|
Db|----------------|---------------|---------------|---------------|

|-------------------|-------------------|-------------------|
|-------------------|-------------------|-------------------|
|-----12------12----|-----12------12----|-----12------12----|
|----------0------0-|----------0------0-|----------0------0-|
|--13---13----------|--13---13----------|--12---12----------|
|-------------------|-------------------|-------------------|

|-------------------|
|-------------------|
|-----12------12----|
|----------0------0-|
|-------------------|
|--10---10----------|
comments powered by Disqus
Наверх