Аккорды Alter Bridge - Last Of Our Kind

Добавлено: @romashka
Дата добавления: 05 Апреля 2018г.
Рейтинг:
0.0
Просмотров: 32
Транспонировать - +
[Intro]
D#|-------------------------------------------------------------7-7-7-7----|      
A#|---5p4-5p4-4-4-4-4-5p4-5h7-7-7-7-5p4-5p4-5p4-4-4-4-4-5p4-5p4------------|
F#|---4---4---4-4-4-4-4---4---4-4-4-4---4---4---4-4-4-4-4---4---4-4-4-4----|
C#|------------------------------------------------------------------------|
G#|------------------------------------------------------------------------|
A#|------------------------------------------------------------------------|

D#|-------------------------------------------------------------7--7--7--7----|      
A#|---5p4-5p4-4-4-4-4-5p4-5h7-7-7-7-5p4-5p4-5p4-4-4-4-4-5p4-5p4-10-10-10-10---|
F#|---4---4---4-4-4-4-4---4---4-4-4-4---4---4---4-4-4-4-4---4-----------------|
C#|---------------------------------------------------------------------------|
G#|---------------------------------------------------------------------------|
A#|---------------------------------------------------------------------------|

D#|--------------------------------------------------------------------------------------|
A#|--------------------------------------------------------------------------------------|
F#|--------------------------------------------------------------------------------------|
C#|--------------------------------------------------------------------------------------|
G#|-------------0-2-3-2-0----2\7-6---------0-2-3-2-0----\2-3-2--------0-2-3-2-0----2\7-6-|
A#|-12/0-0-0-00-----------00--------0-0-00-----------00-------0-0-00------------00-------|

D#|-------------------------------------|
A#|-------------------------------------|
F#|-------------------------------------|
C#|-------------------------------------|
G#|----6-7-3-----3-5-2-----2-3-2--------|
A#|-00-------0-0-------0-0--------------|

D#|-------------------------------------------------------------------------------|
A#|-------------------------------------------------------------------------------|
F#|-------------------------------------------------------------------------------|
C#|-------------------------------------------------------------------------------|
G#|------0-2-3-2-0----2\7-6---------0-2-3-2-0----\2-3-2--------0-2-3-2-0----2\7-6-|
A#|-0-00-----------00--------0-0-00-----------00-------0-0-00------------00-------|

D#|-------------------------------------|
A#|-------------------------------------|
F#|-------------------------------------|
C#|-------------------------------------|
G#|----6-7-3-----3-5-2-----2-3----------|
A#|-00-------0-0-------0-0-----0--------|


[Verse]
D#|-------------------------------------------------------------------------------|
A#|-------------------------------------------------------------------------------|
F#|-------------------------------------------------------------------------------|
C#|-------------------------------------------------------------------------------|
G#|------0-2-3-2-0----2\7-6---------0-2-3-2-0----\2-3-2--------0-2-3-2-0----2\7-6-|
A#|-1-00-----------00--------0-0-00-----------00-------0-0-00------------00-------|
    * **           **        * * **           **       * * **            **

D#|---------------------------------------------------------------------------|
A#|---------------------------------------------------------------------------|
F#|---------------------------------------------------------------------------|
C#|---------------------------------------------------------------------------|
G#|----6-7-3-----3-5-2-----2-3------------------------------------------------|
A#|-00-------0-0-------0-0-----0----------------------------------------------|
    **       * *       * *     *

D#|-------------------------------------------------------------------------------|
A#|-------------------------------------------------------------------------------|
F#|-------------------------------------------------------------------------------|
C#|-------------------------------------------------------------------------------|
G#|------0-2-3-2-0----2\7-6---------0-2-3-2-0----\2-3-2--------0-2-3-2-0----2-----|
A#|-1-00-----------00--------0-0-00-----------00-------0-0-00------------00-------|
    * **           **        * * **           **       * * **            **

D#|--------------------------|
A#|--------------------------|
F#|--7--7-9-x-10-------------|
C#|--5--4-7-x-8--------------|
G#|--------------------------|
A#|--------------0-----------|

D#|-------------------------------------------------------------------------------|
A#|-------------------------------------------------------------------------------|
F#|-------------------------------------------------------------------------------|
C#|-------------------------------------------------------------------------------|
G#|------0-2-3-2-0----2\7-6---------0-2-3-2-0----\2-3-2--------0-2-3-2-0----2\7-6-|
A#|-0-00-----------00--------0-0-00-----------00-------0-0-00------------00-------|

D#|---------------------------------------------------------------------------|
A#|---------------------------------------------------------------------------|
F#|---------------------------------------------------------------------------|
C#|---------------------------------------------------------------------------|
G#|----6-7-3-----3-5-2-----2-3-2----------------------------------------------|
A#|-00-------0-0-------0-0----------------------------------------------------|

D#|-------------------------------------------------------------------------------|
A#|-------------------------------------------------------------------------------|
F#|-------------------------------------------------------------------------------|
C#|-------------------------------------------------------------------------------|
G#|------0-2-3-2-0----2\7-6---------0-2-3-2-0----\2-3-2--------0-2-3-2-0----2-----|
A#|-0-00-----------00--------0-0-00-----------00-------0-0-00------------00-------|

D#|-----------------------------|
A#|-----------------------------|
F#|--7--7-9-x-10--12------------|
C#|--5--4-7-x-8---10------------|
G#|-----------------------------|
A#|---------------0-------------|

[Pre-Chorus]
D#|---------------------------2-------------------|
A#|----5-----5----------5-------------------------|
F#|-------4--4b5-----------4----------------------|
C#|-----------------------------------------------|
G#|-----------------------------------------------|
A#|-----------------0-----------------------------|

[Chorus] - I like to play with these three chords, open. But it's up to you

D#|----0-------0---0---------2-----| Ends with     |----0-----0-------|
A#|----0-------0---0---------2-----|               |----0-----0-------|
F#|----9-------0---0---------4-----|               |----9-----0-------|
C#|----9-------9---11--------4-----|               |----9-----9-------|
G#|----7-------10--10--------2-----|               |----7-----10------|
A#|------------8---8---------0-----|               |----------8-------|

[Bridge]
D#|--------------------------------------------------------------------|
A#|--------------------------------------------------------------------|
F#|--------------------------------------------------------------------|
C#|--------------------------------------------------------------------|
G#|------------2223---------2223----------2222-3333-2222-0000-333-2----|
A#|-0--0-0-0-0------0-0-0-0-------0-0-0-0------------------------------|
       * * * * ***  * * * * ***   * * * * **** **** **** **** ***
   
D#|-----------------------------------------------------------------|
A#|-----------------------------------------------------------------|
F#|-----------------------------------------------------------------|
C#|-----------------------------------------------------------------|
G#|---------2223---------2223----------2222-3333-2222-0000-333-6----|
A#|-0-0-0-0------0-0-0-0-------0-0-0-0------------------------------|
    * * * * ***  * * * * ***   * * * * **** **** **** **** ***
   
D#|-----------------------------------------------------------------|
A#|-----------------------------------------------------------------|
F#|-----------------------------------------------------------------|
C#|-----------------------------------------------------------------|
G#|---------6667---------6667----------6666-7777-6666-4444-777-6----|
A#|-0-0-0-0------0-0-0-0-------0-0-0-0------------------------------|
    * * * * ***  * * * * ***   * * * * **** **** **** **** ***

D#|-----------------------------------------------------------------|
A#|-----------------------------------------------------------------|
F#|-----------------------------------------------------------------|
C#|-----------------------------------------------------------------|
G#|---------6667---------6667----------6666-7777-6666-4444-777-9----|
A#|-0-0-0-0------0-0-0-0-------0-0-0-0------------------------------|
    * * * * ***  * * * * ***   * * * * **** **** **** **** ***

D#|-----------------------------------------------------------------------------|
A#|-----------------------------------------------------------------------------|
F#|-----------------------------------------------------------------------------|
C#|-----------------------------------------------------------------------------|
G#|---------99910---------99910----------9999-10101010-9999-7777-10101010-14----|
A#|-0-0-0-0-------0-0-0-0-------0-0-0-0-----------------------------------------|
    * * * * ***   * * * * ***   * * * *  **** ******** **** **** *******

D#|---------------------------------------------------------|
A#|---------------------------------------------------------|
F#|---------------------------------------------------------|
C#|---------------------------------------------------------|
G#|---------14141415---------14141415---------14141415------|
A#|-0-0-0-0----------0-0-0-0----------0-0-0-0---------------|
    * * * * ******   * * * * ***      * * * * ******

[Outro]
D#|---------------------------------------------------------------------------------------|
A#|---------------------------------------------------------------------------------------|
F#|---------------------------------------------------------------------------------------|
C#|---------------------------------------------------------------------------------------|
G#|------------2-2----2-2-----------2-2----2-2-----------2-2----2-2-----------2-2----2----|
A#|-15/0--1--3-0-0-00-0-0-0000-1--3-0-0-00-0-0-0000-1--3-0-0-00-0-0-0000-1--3-0-0-00-0----|
                   **     ****          **     ****          **     ****          **
D#|---------------------------------------------------------------------------------------|
A#|---------------------------------------------------------------------------------------|
F#|---------------------------------------------------------------------------4-4-4-4-----|
C#|---------------------------------------------------------------------------4-4-4-4-----|
G#|------------2-2----2-2-----------2-2----2-2-----------2-2----2-2-----------2-2-2-2-----|
A#|-15/0--1--3-0-0-00-0-0-0000-1--3-0-0-00-0-0-0000-1--3-0-0-00-0-0-0000-1--3-0-0-0-0-----|
                   **     ****          **     ****          **     ****          



************************************
| x   Dead note
| h   Hammer-on
| p   Pull-off
| b   bend
| /   Slide up
| \   Slide down
| PM  Palm mute
************************************
comments powered by Disqus
Наверх