Аккорды Alter Bridge - Losing Patience

Добавлено: @romashka
Дата добавления: 05 Апреля 2018г.
Рейтинг:
0.0
Просмотров: 9
Транспонировать - +
Fade In Intro - repeated with light flanger
eb|---------------------------|
Bb|---------------------------|
Gb|----7NH---7NH---7NH---7NH--|
Db|--0-----0-----0-----0------|
Ab|---------------------------|
Db|---------------------------|


Main Riff - beats are noted above, play 2x

   Guitar 1
    1       2       3         4
eb|-------------------------------------|-------------------------------------|
Bb|-------------------------------------|-------------------------------------|
Gb|-------------------------------------|-------------------------------------|
Db|-------------------------------------|-------------------------------------|
Ab|-------------------------------------|-------------------------------------|
Db|-12~-----12--12~-12~-12-12-12b13r----|-12------12--12~-12~--10-12-13~~-----|
  |
  | Guitar 2
eb|-------------------------------------|-------------------------------------|
Bb|-------------------------------------|-15TP--------------------------------|
Gb|-14TP--------------------------------|-------------------------------------|
Db|-------------------------------------|-------------------------------------|
Ab|-------------------------------------|-------------------------------------|
Db|-------------------------------------|-------------------------------------|


eb|-------------------------------------|---------------------------------------|
Bb|-------------------------------------|---------------------------------------|
Gb|-------------------------------------|---------------------------------------|
Db|-------------------------------------|-----------------13pb14-13-12-10-------|
Ab|-------------------------------------|---------------------------------12-10-|
Db|-12------12--12~-12~-12-12-12b13r----|-12-12---13-13-------------------------|
  |
  |
eb|-------------------------------------|---------------------------------------|
Bb|-------------------------------------|-14TP------------stop playing here-----|
Gb|-15TP--------------------------------|---------------------------------------|
Db|-------------------------------------|---------------------------------------|
Ab|-------------------------------------|---------------------------------------|
Db|-------------------------------------|---------------------------------------|



Verse Riff

   Guitar 1                                                            *PM*
eb|-------------------|------------------|------------------|----------------------|
Bb|-------------------|------------------|------------------|----------------------|
Gb|-------------------|------------------|------------------|----------------------|
Db|-------------------|------------------|------------------|----------------------|
Ab|-------------------|------------------|------------------|----------------------|
Db|-0-----------------|-(0)--------------|-(0)--------------|-3---2--0--1-1-5--3-2-|
  |
  | Guitar 2
eb|-5-----------------|-4----------------|-6----------------|-5--------------------|
Bb|-6-----------------|-5----------------|-8----------------|-6--------------------|
Gb|-------------------|------------------|------------------|----------------------|
Db|-------------------|------------------|------------------|----------------------|
Ab|-------------------|------------------|------------------|----------------------|
Db|-------------------|------------------|------------------|----------------------|

   Guitar 1
eb|-------------------|------------------|------------------|
Bb|-------------------|------------------|------------------|
Gb|-------------------|------------------|------------------|
Db|-------------------|------------------|------------------|
Ab|-------------------|------------------|------------------|
Db|-0-----------------|-(0)--------------|-(0)--------------|
  |                                                             
  | Guitar 2
eb|-5-----------------|-4----------------|-0----------------|
Bb|-6-----------------|-5----------------|-1----------------|
Gb|-------------------|------------------|------------------|
Db|-------------------|------------------|------------------|
Ab|-------------------|------------------|------------------|
Db|-------------------|------------------|------------------|


    Guitar 1        PM***************
eb|-----------------------------------|
Bb|-----------------------------------|
Gb|-----------------------------------|
Db|-----------------------------------|
Ab|-----------------------------------|
Db|-12-12---13-13---10-12-12-13-12-10-|
  |
  | Guitar 2
eb|-1---------------------------------|
Bb|-3---------------------------------|
Gb|-----------------------------------|
Db|-----------------------------------|
Ab|-----------------------------------|
Db|-----------------------------------|


Verse Riff 2 - Guitar 1 
eb|-------------------------------------|-------------------------------------|
Bb|-------------------------------------|-------------------------------------|
Gb|-------------------------------------|-------------------------------------|
Db|-------------------------------------|-------------------------------------|
Ab|-------------------------------------|-------------------------------------|
Db|-12------12--12~-12~-12-12-12b13r----|-12------12--12~-12~--10-12-13~~-----|
  |
  |  Guitar 2
eb|-5---------------------5-------------|-4--------------------4--------------|
Bb|---------6---------6-------6---------|---------5--------5-------5----------|
Gb|-------------------------------------|-------------------------------------|
Db|-------------------------------------|-------------------------------------|
Ab|-------------------------------------|-------------------------------------|
Db|-------------------------------------|-------------------------------------|


eb|-------------------------------------|------------------------------------|
Bb|-------------------------------------|------------------------------------|
Gb|-------------------------------------|------------------------------------|
Db|-------------------------------------|------------------------------------|
Ab|-------------------------------------|------------------------------------|
Db|-12------12--12~-12~-12-12-12b13r----|-12-12---13-13----10-12-12-13-12-10-|
  |
  |
eb|---------10--------------10----------|----------5-------------------------|
Bb|-/8------------------8--------8------|--6---------------------------------|
Gb|-------------------------------------|------------------------------------|
Db|-------------------------------------|------------------------------------|
Ab|-------------------------------------|------------------------------------|
Db|-------------------------------------|------------------------------------|


eb|-------------------------------------|-------------------------------------|
Bb|-------------------------------------|-------------------------------------|
Gb|-------------------------------------|-------------------------------------|
Db|-------------------------------------|-------------------------------------|
Ab|-------------------------------------|-------------------------------------|
Db|-12------12--12~-12~-12-12-12b13r----|-12------12--12~-12~--10-12-13~~-----|
  |
  |  Guitar 2
eb|-5---------------------5-------------|-4--------------------4--------------|
Bb|---------6---------6-------6---------|---------5--------5-------5----------|
Gb|-------------------------------------|-------------------------------------|
Db|-------------------------------------|-------------------------------------|
Ab|-------------------------------------|-------------------------------------|
Db|-------------------------------------|-------------------------------------|


eb|-------------------------------------|-------------------------------|
Bb|-------------------------------------|-------------------------------|
Gb|-------------------------------------|-------------------------------|
Db|-------------------------------------|-------------------------------|
Ab|-------------------------------------|-------------------------------|
Db|-12------12--12~-12~-12-12-12b13r----|-12-12---13-13----0------------|
  |
  |
eb|-----------------8-------------------|-------------------------------|
Bb|------------8---------8--------8-----|-10----------------------------|
Gb|-------9-----------------------------|-10----------------------------|
Db|--10----------------------10---------|-------------------------------|
Ab|-------------------------------------|-------------------------------|
Db|-------------------------------------|-------------------------------|




Chorus - both guitars
eb|-------------------------|-------------------------|-------------------------|
Bb|-------------------------|-------------------------|-------------------------|
Gb|-3--3--3--3--3--3--------|-------------------------|----------------------5--|
Db|-3--3--3--3--3--3-----0--|----0--0--0--0--0--0--0--|-3--3--3--3--3--3-----5--|
Ab|-1--1--1--1--1--1-----0--|----0--0--0--0--0--0--0--|-3--3--3--3--3--3-----3--|
Db|----------------------0--|----0--0--0--0--0--0--0--|-3--3--3--3--3--3--------|

eb|-------------------------|-------------------------|-------------------------|
Bb|-------------------------|-------------------------|-------------------------|
Gb|----5--5--5--5--5--5--5--|-3--3--3--3--3--3--------|-------------------------|
Db|----5--5--5--5--5--5--5--|-3--3--3--3--3--3-----0--|----0--0--0--0--0--0--0--|
Ab|----3--3--3--3--3--3--3--|-1--1--1--1--1--1-----0--|----0--0--0--0--0--0--0--|
Db|-------------------------|----------------------0--|----0--0--0--0--0--0--0--|

eb|------------------------|-------------------------|
Bb|------------------------|-------------------------|
Gb|----------------------5-|----5--5--5--------------|
Db|-3--3--3--3--3--3-----5-|----5--5--5--7--7--7--7--|
Ab|-3--3--3--3--3--3-----3-|----3--3--3--4--4--4--4--|
Db|-3--3--3--3--3--3-------|-------------------------|




Play Main Riff 1x

Play Verse Riff 1 and 2 again

 

Bridge - 
eb|----------------------------------|-----------------------------|
Bb|----------------------------------|-----------------------------|
Gb|----------------------------------|-----------------------------|
Db|----------------------------------|-----------------------------|
Ab|----------------------------------|-----------------------------|
Db|-15p12-0h10-13p12-0h10-13p12-0h10-|-13p12-0h10-13p12-0-0h10-0-0-|

eb|----------------------------------|----------------------------|
Bb|----------------------------------|----------------------------|
Gb|----------------------------------|----------------------------|
Db|----------------------------------|----------------------------|
Ab|----------------------------------|----------------------------|
Db|-15p12-0h10-13p12-0h10-13p12-0h10-|-13p12-0h10-13p12-3/15\-----|



Interlude, Guitar 1 - play 4x

eb|------------------------------|---------------------------------|
Bb|------------------------------|---------------------------------|
Gb|------------------------------|-7-5-----5-----------------------|
Db|------------------------------|-----5-7---5-7-5-----5-----------|
Ab|------------------------------|-----------------8-8---5-7-8-5---|
Db|-0-0---0-0---0-0---0-0--0-0-0-|---------------------------------|

eb|------------------------------|---------------------------------|
Bb|------------------------------|---------------------------------|
Gb|------------------------------|-5-------------------------------|
Db|------------------------------|---7-5-5-7-5---------5-----------|
Ab|------------------------------|-------------8-5-8-8---5-5~------|
Db|-0-0---0-0---0-0---0-0--0-0-0-|---------------------------------|



Interlude, Guitar 2 
eb|---------------------|-5------------------|-6-------------------|
Bb|-7-------------------|-6------------------|-6-------------------|
Gb|-7-------------------|-5------------------|-7-------------------|
Db|-7-------------------|-7------------------|-8-------------------|
Ab|---------------------|--------------------|---------------------|
Db|---------------------|--------------------|---------------------|

    
eb|-7-------------------|--------------------|-5-------------------|
Bb|-8-------------------|-7------------------|-6-------------------|
Gb|-7-------------------|-7------------------|-5-------------------|
Db|-9-------------------|-7------------------|-7-------------------|
Ab|---------------------|--------------------|---------------------|
Db|---------------------|--------------------|---------------------|

eb|-6-------------------|-7------------------|/10TP----------------|
Bb|-6-------------------|-8------------------|/10TP----------------|
Gb|-7-------------------|-7------------------|---------------------|
Db|-8-------------------|-9------------------|---------------------|
Ab|---------------------|--------------------|---------------------|
Db|---------------------|--------------------|---------------------|

eb|/13TP----------------|-13TP---------------|-15TP----------------|
Bb|/13TP----------------|-15TP---------------|-15TP----------------|
Gb|/14TP----------------|-15TP---------------|-16TP----------------|
Db|---------------------|--------------------|---------------------|
Ab|---------------------|--------------------|---------------------|
Db|---------------------|--------------------|---------------------|

eb|/10TP----------------|/13TP----------------|-13TP---------------|-15TP-------------|
Bb|/10TP----------------|/13TP----------------|-15TP---------------|-15TP-------------|
Gb|---------------------|/14TP----------------|-15TP---------------|-16TP-------------|
Db|---------------------|---------------------|--------------------|------------------|
Ab|---------------------|---------------------|--------------------|------------------|
Db|---------------------|---------------------|--------------------|------------------|



Play Bridge again, with slight change:

eb|----------------------------------|-----------------------------|
Bb|----------------------------------|-----------------------------|
Gb|----------------------------------|-----------------------------|
Db|----------------------------------|-----------------------------|
Ab|----------------------------------|-----------------------------|
Db|-15p12-0h10-13p12-0h10-13p12-0h10-|-13p12-0h10-13p12-0-0h10-0-0-|

eb|----------------------------------|----------------------------|
Bb|----------------------------------|----------------------------|
Gb|----------------------------------|----------------------------|
Db|----------------------------------|----------------------------|
Ab|----------------------------------|-------------------12--10---|
Db|-15p12-0h10-13p12-0h10-13p12-0h10-|-13p12-0h10-13p12--12--10---|




Last Chorus:

eb|------------------------|-------------------------|-------------------------|
Bb|------------------------|-------------------------|-------------------------|
Gb|------------------------|-------------------------|----------------------5--|
Db|---------------------0--|----0--0--0--0--0--0--0--|-3--3--3--3--3--3-----5--|
Ab|--8------------------0--|----0--0--0--0--0--0--0--|-3--3--3--3--3--3-----3--|
Db|--8------------------0--|----0--0--0--0--0--0--0--|-3--3--3--3--3--3--------|

eb|-------------------------|-------------------------|-------------------------|
Bb|-------------------------|-------------------------|-------------------------|
Gb|----5--5--5--5--5--5--5--|-3--3--3--3--3--3--------|-------------------------|
Db|----5--5--5--5--5--5--5--|-3--3--3--3--3--3-----0--|----0--0--0--0--0--0--0--|
Ab|----3--3--3--3--3--3--3--|-1--1--1--1--1--1-----0--|----0--0--0--0--0--0--0--|
Db|-------------------------|----------------------0--|----0--0--0--0--0--0--0--|

eb|-------------------------|-------------------------|
Bb|-------------------------|-------------------------|
Gb|----------------------5--|----5--5--5--5--5--5--5--|
Db|-3--3--3--3--3--3-----5--|----5--5--5--5--5--5--5--|
Ab|-3--3--3--3--3--3-----3--|----3--3--3--3--3--3--3--|
Db|-3--3--3--3--3--3--------|-------------------------|


Outro
eb|------------------------|-------------------------|------------------------|
Bb|------------------------|-------------------------|------------------------|
Gb|-3--3--3--3--3--3--3--3-|-3--3--3--3--3--3--3--3--|------------------------|
Db|-3--3--3--3--3--3--3--3-|-3--3--3--3--3--3--3--3--|-3--3--3--3--3--3--3--3-|
Ab|-1--1--1--1--1--1--1--1-|-1--1--1--1--1--1--1--1--|-3--3--3--3--3--3--3--3-|
Db|------------------------|-------------------------|-3--3--3--3--3--3--3--3-|

eb|------------------------|-------------------------|-------------------------|
Bb|------------------------|-------------------------|-------------------------|
Gb|-5--5--5--5--5--5--5--5-|-3--3--3--3--3--3--3--3--|-3--3--3--3--3--3--3--3--|
Db|-5--5--5--5--5--5--5--5-|-3--3--3--3--3--3--3--3--|-3--3--3--3--3--3--3--3--|
Ab|-3--3--3--3--3--3--3--3-|-1--1--1--1--1--1--1--1--|-1--1--1--1--1--1--1--1--|
Db|------------------------|-------------------------|-------------------------|

eb|------------------------|-------------------------|
Bb|------------------------|-------------------------|
Gb|------------------------|-5--5--5--5--------------|
Db|-3--3--3--3--3--3--3--3-|-5--5--5--5--7--7--7--7--|
Ab|-3--3--3--3--3--3--3--3-|-3--3--3--3--4--4--4--4--|
Db|-3--3--3--3--3--3--3--3-|-------------------------|


Play Main Riff 2x, last bar ends on  
   Guitar 1
eb|-----------------------------------|
Bb|-----------------------------------|
Gb|-----------------------------------|
Db|-12PH~---12PH~---12PH~---12PH_b15--|
Ab|-----------------------------------|
Db|-----------------------------------|
    keep hitting pinch harmonic, bend on last one


************************************
KEY

 /   slide up
 \   slide down
 h   hammer-on
 p   pull-off
 ~   vibrato
 x   Mute note
()   Hold note from previous bar
TP   Tremelo pick, 16ths (4 per beat)
PH   pinch harmonic

************************************************************************

Lyrics:

[Verse 1]
Sitting by the telephone
Waiting for what never comes
A chance to be the chosen one is all but gone

Arise the tide within your heart
A longing for another start
Far beyond the wretched place that you've come to know

[Chorus]
Are you finally losing patience
May you rise, your time has come
May you fight for what's been taken
Find your strength when there is none

[Verse 2]
A message from so long ago
Reminding you that you let go
Why did you throw it all away, it still haunts you so

But now you see what's come to pass
You're screaming for a second chance
If life is what you make of it then make it your own

[Chorus]
Are you finally losing patience
May you rise, your time has come
May you fight for what's been taken
Find your strength when there is none

Know your life is still worth saving
Can't you see how far you've come
If you find you're losing patience
Then just rise, your time has come
(Your time has come)

[Interlude]
This may be the only way you've got
A second chance to turn the page, move on
If you choose to wallow in these sorrows, what will be the cost
If you did and follow your tomorrow, find where you belong
Move on, move on

[Chorus]
Are you finally losing patience
May you rise, your time has come
May you fight for what's been taken
Find your strength when there is none

Know your life is still worth saving
May you fight for what's been taken

[Outro]
(Your time has come)
(If life is what you make of it then make it your own)
comments powered by Disqus
Наверх