Аккорды Alter Bridge - The Other Side

Добавлено: @romashka
Дата добавления: 05 Апреля 2018г.
Рейтинг:
0.0
Просмотров: 79
Транспонировать - +
[Intro] 

C#|---------------------------------------------------------------------------|
G#|---------------------------------------------------------------------------|
E |------------------2-2----------------------2-4p2-2-------------------------|(x2)
B |---------------------------------------------------------------------------|
F#|-----4-4/6-7-6-4-3-3----------4-4/6-7-6-4-3-----3--------------------------|
B |-0/2--2--------------------0/2-2-------------------------------------------|
(During intro)
C#|--------------------|
G#|--------------------|
E |--------------------|
B |--------------------|
F#|--------------------|
B |-0-0-1b--0-0-3-2-0~-|


[Intro/Verse]

C#|----------------------------------------------------------------------|
G#|----------------------------------------------------------------------|
E |----------------------------------------------------------------------|
B |-------2-2-2-------2-2-2--------9-------9--------2-2-2-------2-2-2----|
F#|-------4-4-4-------4-4-4-------11-------11-------4-4-4-------4-4-4----|
B |-0-0-0-5-5-5-0-0-0-5-5-5-0-0-0-12-0-0-0-12-0-0-0-5-5-5-0-0-0-5-5-5--0~|

[Pre-Chorus]

C#|------------------------------------------------|
G#|------------------------------------------------|
E |--6/5-5/4-4/3-3/2------6-6-6-6-13-13-13-13--6---|
B |-----------------------5-5-5-5-12-12-12-12--6---|
F#|--4/3-3/2-2/1-1/0------4-4-4-4-11-11-11-11--4---|(Don't trust me on the last bits)
B |-0---0---0---0---(x3)--0-0-0-0-0--0--0--0---0---|


[Chorus] (From what I could make out)

C#|---------------------------------------------------------------------------|
G#|---------------------------------------------------------------------------|
E |---------------------------------------------------------------------------|
B |---------------------------------------------------------------------------|
F#|---------------------------------------------------------------------------|
B |-3-0-3b0-5-0-8~-7-5(x3)-8-8-8-8-8-8-10-8-7-7-7-7-3-3-3-3-0-----------------|

[Other Guitar before song goes back into verse]

C#|-17-17-17-17-17-16-16-16-16-16---|
G#|---------------------------------|
E |---------------------------------|
B |---------------------------------|
F#|---------------------------------|
B |---------------------------------|


[Bridge]

C#|---------------------------------------| C#|--------------------------------------|
G#|-14b(x16)-18b(x16)-14b(x16)-21b(x16)---| G#|-14~14-13-12-----------13~------------|[Bridge riff](x4)
E |---------------------------------------| E |------------13~11-13-11---11h13p11-8b-|
B |---------------------------------------| B |--------------------------------------|
F#|---------------------------------------| F#|--------------------------------------|
B |---------------------------------------| B |--------------------------------------|

C#|--------------------------------|
G#|--------------------------------|
E |--------------------------------|
B |--------------------------------|
F#|----4-4/6-7-6-4-3b--------------|
B |-0-2-2--------------------------|

[Outro] Basically repeat the bridge, but when ending the bridge riff at the end do this,
just to replace the fading out:

C#|------------------------------------------|
G#|-14~-14-13-12-----------13~---------------|
E |-------------13~11-13-11---11h13p11-8b-6~-|
B |------------------------------------------|
F#|------------------------------------------|
B |------------------------------------------|


************************************

| x   Dead note
| g   Grace note
| (n) Ghost note
| h   Hammer-on
| p   Pull-off
| r   Release
| >   Accented note
| t   Tapping
| b   Bend
| br  Bend release
| pb  Pre-bend
| pbr Pre-bend release
| /   Slide up
| \   Slide down
| ~   Vibrato
| s   Slap
| P   Pop
| PM  Palm mute
| TR  Trill
| N   Tremolo

************************************
comments powered by Disqus
Наверх