Аккорды Анатолий Багрицкий - Сон о снах

Добавлено: @romashka
Дата добавления: 29 Ноября 2019г.
Рейтинг:
0.0
Просмотров: 30
Транспонировать - +
Вступление / Проигрыш:
    Am7   D7 D   Cmaj7   G
1|--3-0---2--2---3-0-----3-|
2|--1-1---1--3---0-0-----0-|
3|--0-0---2--2---0-0-----0-|
4|--2-2---0--0---2-2-----0-|
5|--0-0---0--0---3-3-----2-|
6|--0-0---0--0---0-0-----3-|

1|--------------------------------|
2|------0-1-0^1^0-----------------|
3|----0----------------2^0--------|
4|--0-------------------------4^5-|
5|--------------------------------|
6|--------------------------------|

Куплет 1:
1|-3---2--0--3--5---2--------|
2|-------------------------3-| Am7 
Мир состоит из наших слов.

3|-3-1-0-| C Em (по басам)

1|-3---2--0-3--5---2---------|
2|-------------------------3-|  Am7
Мир состоит из наших мыслей, но

       D7     C         Am 
Все это только сон юного Бога.

3|-3-1-0-| G }x2

G7 Cmaj7   
Сон о снах...

5|--3^2-0-2-| Em (бас 6 струна)

Куплет 2:
1|-3---2--0--3--5---2--------|
2|-------------------------3-| Am7 
Я говорю на языке,

3|-3-1-0-| C Em (по басам)

1|-3---2--0-3--5---2---------|
2|-------------------------3-|  Am7
На языке своих поступков.

       D7     C         Am 
Сколько красивых фраз мы сочинили,
 G7    Cmaj7   F#
Чтобы лгать... себе.

Припев:
Am7
Смерть идёт неслышно, как цунами
D7
Под водой моих воспоминаний —
Cmaj7                       G (и проигрыш)
Видишь, я стою с одним веслом?

Am7
Девочка в бумажном синем платье,
D7 
Унеси корабль моей кровати
Cmaj7                      G  (и проигрыш)
К островам давно забытых снов.

Куплет 3:
1|-3---2--0--3--5---2--------|
2|-------------------------3-| Am7 
Мир состоит из наших слёз. 

3|-3-1-0-| C Em (по басам)

1|-3---2--0-3--5---2---------|
2|-------------------------3-|  Am7
Мир состоит из обещаний.

       D7     C         Am 
Сколько его не бей, глупое сердце
G7     Cmaj7 
Ждёт любви...

5|--3^2-0-2-| Em (бас 6 струна)

Куплет 4:
1|-3---2--0--3--5---2--------|
2|-------------------------3-| Am7 
Я принимаю всё, как есть.

3|-3-1-0-| C Em (по басам)

1|-3---2--0-3--5---2---------|
2|-------------------------3-|  Am7
Я принимаю всё, что будет.

       D7     C         Am 
Брызги горячих звёзд падают в море.
G7    Cmaj7   F# 
И шипя-я-я-я-я-я-т на ветру.

Припев:
Am7
Смерть идёт неслышно, как цунами
D7
Под водой моих воспоминаний —
Cmaj7                       G (и проигрыш)
Видишь, я стою с одним веслом?

Am7
Девочка в бумажном синем платье,
D7 
Унеси корабль моей кровати
Cmaj7                      G  (и проигрыш)
К островам давно забытых снов.

G7 (320023)
Cmaj7 (032000)
F# (024300)
D7 (054030)
Cmaj7 (032003)

Примечание 1:
    Am7 C Em
___^__^__^ 
1|--0-0-0-0-x--|
2|--3-1-0-1-x--|
3|--0-0-0-0-0--|
4|--2-2-2-2-2--|
5|--0-0-0-3-2--|
6|--0-0-0-0-0--|

x - не звучат.

Примечание 2:
    Am7 G 
___^__^ 
1|--0-0-0-3--|
2|--3-1-0-0--|
3|--0-0-0-0--|
4|--2-2-2-0--|
5|--0-0-0-2--|
6|--0-0-0-3--|
comments powered by Disqus
Наверх