Аккорды Animal ДжаZ - О хлебе и воде

Добавлено: @romashka
Дата добавления: 24 Июля 2020г.
Рейтинг:
0.0
Просмотров: 155
Транспонировать - +
Куплет играем так:

      Dm        A#     A
e|---4---4----|---1-----0--|
B|--3-3-------|--3-----2---|
G|-2---2------|-3-----2----| x2 ---->
D|0-----------|3-----2-----|
A|------------|------------|
E|------------|------------|

       A#            C           A#          A# /B         A#            A
e|------------|---0--0--0--|------------|------0-----|------1-----|---0--------|
B|---3--3--3--|--1-1--1--1-|---3--3--3--|---3---3-3--|---3---3-3--|--2-2-------|
G|--3-3--3--3-|-0---0--0--0|--3-3--3--3-|--3-3---3-3-|--3-3---3-3-|-2---2------|
D|-3---3--3--3|------------|-3---3--3--3|-3---3-----3|-3---3-----3|2-----2-----|
A|1-----------|3-----------|1-----------|2-----------|1-----------|-------0----|
E|------------|------------|------------|------------|------------|------------|

Далее сопоставляем аккорды в переборе с текстом:

Dm                              A#               A
Читал я в книгах, видел в снах, как мир летит во тьму
Dm                            A#       A
Но и не думал, что лететь придется самому
A#                               C
Мы так смешны в своих мечтах и в вечной суете
A#                           A#/B
Когда придет реальный крах и нищие, и во дворцах
A#                    A
Молиться будут лишь о хлебе и воде.

Вот небеса горят огнем, в дыму не видно нас
И мы, конечно, все умрем, но только не сейчас
По норам отсидимся, ну а вдруг не быть беде
Но мрак уже стучится, деревни и столицы
Молиться будут лишь о хлебе и воде.

И там уже не важно, был ты голубых кровей
Или кровей сермяжных, был герой или злодей
В одной кровавой сказке всех до фарша из костей
Закрутит, боль умножит, но победить не сможет
Нас, мелких и ничтожных, прекраснейших людей.

Проигрыш в конце:
Dm Dm A# A x4

Указанные аккорды в проигрыше советую заменять аналогичными с различными доб. ступенями (sus2, sus).
Наверх