Аккорды Animal ДжаZ - Вальс

Добавлено: @romashka
Дата добавления: 16 Марта 2013г.
Рейтинг:
0.0
Просмотров: 508
Транспонировать - +
Bm | A | G | 6:--0-3-5-| - играется весь куплет

Ночь на проводе
Очень хочется
Растопить ее
Одиночество
Постучаться в дверь ее
Не закрыв окна
И в глаза ее
Заглянуть до дна
И закружиться в танце
У ее костра
Вихрями, закрученными в танце
Вырвать сердца нет и нет тепла

Bm | A | G#m | G
Но ты играй
Bm | A | G#m
Вальс из ста нот
В нем живет
Лишь одна из ста

Ночь играет нам
Вальс три четверти
Твое мое тело
Сплела в одно смело
Но не выйдет одного
Разобьет на два
Одиночества
Шесть часов без сна

Но ты играй
Вальс из ста нот
В нем живет
Лишь одна из ста

F | Am | Am/b | Am/c | 4:--3-2-0-| (или просто Am)

Chorus:
F
Дай мне
Am Am/b Am/c Am
Уйти на перекресток твоих дорог
Дай мне
Уснуть раньше, чем выйдет мой срок
Эта ночь не оставит в тебе тепла
Не жди, не надейся, не думай
Эта ночь расплатится с тобой сполна
F
Остатками крошек, пыльцой со стола

F | C x2 (в середине песни) или х4 (в конце)
Bm | B | Bm

Bm A G G#m F#m F Am Am/b Am/c C B
e:---2---5---3---4---2---3---0---0----3----3---2---|
B:---3---5---3---4---2---3---1---1----1----5---4---|
G:---4---6---4---4---2---2---2---2----2----5---4---|
D:---4---7---5---6---4---3---2---0----0----5---4---|
A:---2---7---5---6---4---3---0---2----3----3---2---|
E:---X---5---3---4---2---1---X---X----X----X---X---|

Партия рояля:

Bm A G
e:---------------------------------------------|
B:---------------------------------------------|
G:---------------------------------------------|
D:---------------------------------------------|
A:---------5----------5----------5-------------|
E:---7~--7---7--5~--5---5--3~--3---3--0--3--5--|

Так. Или можно на октаву выше.

Гитарный проигрыш на припев:

F Am Am/b Am/c Am
e:---------------------------------------------|
B:-------------------------------------5-------|
G:---4~-5~-4~-5-7-5~-4-5-7-4-5-7-4-5-7---7-5---|
D:---------------------------------------------|
A:---------------------------------------------|
E:---------------------------------------------|
comments powered by Disqus
Наверх