Аккорды АнимациЯ - Happy End

Добавлено: @romashka
Дата добавления: 19 Апреля 2019г.
Рейтинг:
0.0
Просмотров: 54
Транспонировать - +
Вступление:
e|-3---2---3---2---3---2---3---2---3---2---3---2---|
B|---1---1---1---1---1---1---1---1---1---1---0---0-|
G|-------------------------------------------------|
D|-------------------------------------------------|
A|-------------------------------------------------|
E|-------------------------------------------------|

Em D C B7

Куплет:
  Em          B7             Em
Летим, как одичалый ветер, в даль,
   D
На нерве флюгер,
 Em           B7         Em
Вдоль дорог повисли провода 
  D
И виадуки.
Em         B7       Am
Мимо проплывают города,
                C         B7
Ползут на брюхе ленты-поезда,
 Em        B7         Em
Уже не отмотаешь их назад,
    D
Как те ошибки.
Em            B7         Em
Дико мчатся стрелки на часах, 
    D
Как паутинки.
Em       B7            Am
Седина запуталась в висках
             C           B7
И на ботинки улеглась тоска.

Припев:
C
И развернуться возможности нет,
Am               B7
Жизнь кипит на одной из планет,
 Em                  D
Где так хотелось бы счастья найти,
 C             Am       B7
Среди рутины и мелких побед,
 C
Где на ухабистом сложном пути
 Am           B7
Время увы никого не щадит,
  Em                D
С бешеной скоростью на красный свет,
 C               Am       B7
Где все надеются на happy end.
      C               Am  B7
Happy end, злой happy end...
      C  Am           C  B7
Happy end, злой happy end...

Куплет:
  Em        B7         Em
И ночью телефонные звонки -
   D
Люблю, скучаю.
Em         B7        Em
Разрезают трассу фонари,
    D
Как запятая.
Em        B7        Am
Поворот и хочется курить.

C
Люди хотят просто счастливо жить,
Am
Люди цепляются даже за нить,
C
Даже когда разбиваются лбы,
Am
Даже когда не сносить головы,
C
Даже когда все вокруг кверху дном
Am
В этом короткометражном кино.
C
Самый тяжелый и сложный момент - 
Am
Люди надеются на happy end.

Припев:
C
Но развернуться возможности нет,
Am               B7
Жизнь кипит на одной из планет,
 Em                  D
Где так хотелось бы счастья найти,
 C             Am       B7
Среди рутины и мелких побед,
 C
Где на ухабистом сложном пути
 Am           B7
Время увы никого не щадит,
  Em                D
С бешеной скоростью на красный свет,
 C               Am       B7
Где все надеются на happy end.
      C               Am  B7
Happy end, злой happy end...
      C  Am           C  B7
Happy end, злой happy end...

Проигрыш: Em B7 Em D Em B7 Em D C B7 Am C B7

e|-0-3-0-3-0-7-5-3-2-3-0-3-0-7-5-3-2-3-0-3-0-7-5-3-2-3-0-3-0-7-5-3-2-|
B|-------------------------------------------------------------------|
G|-------------------------------------------------------------------|
D|-------------------------------------------------------------------|
A|-------------------------------------------------------------------|
E|-------------------------------------------------------------------|

e|-3---2---3---2---3---2---3---2---3---2---3---2---3---2-|
B|---1---1---0---0---1---1---1---1---1---1---0---0---0---|
G|-------------------------------------------------------|
D|-------------------------------------------------------|
A|-------------------------------------------------------|
E|-------------------------------------------------------|
comments powered by Disqus
Наверх