Аккорды АнимациЯ - Государство

Добавлено: @romashka
Дата добавления: 05 Марта 2021г.
Рейтинг:
0.0
Просмотров: 183
Транспонировать - +
Проигрыш:
1|---------------------------------------------------------------------
2|--6-6-------------------9-7-6-4----6-6-------------------------------
3|-------6--8-8--6-5-6-3------------------6--8-8--6-5-6--3---8-6-5-3---
4|---------------------------------------------------------------------
5|---------------------------------------------------------------------
6|---------------------------------------------------------------------

 Здесь типа демократия, на самом деле царство!
                                          A#m(VI)
 Я так люблю свою страну... и ненавижу государство
                  G#
 Государство, государство!
F#                 G#
 Государство, государство!

A#m(VI)        G#
 Заплати налоги и живи спокойно
F#                      G#
 Но каждый рубль как покойник
A#m(VI)              G#    F#
 На эти деньги люди сверху
G#
 Нас превращают в перхоть

 Проигрыш (Х2)

A#m(VI)        G#
 А они проводят невнятные реформы
F#                G#
 Меняют облики и формы
A#m(VI)             G#
 Кидают через одно место
F#                G#
 И проверяют из какого же мы теста!
A#m(VI)              G#
 Здесь типа демократия, на самом деле царство!
F#                    G#                   A#m(VI)
 Я так люблю свою страну... и ненавижу государство
                   G#           
 Государство, государство!
F#                 G#        
 Государство, государство!

 Проигрыш (Х2)

A#m(VI)        G#
 Заплати налоги и живи спокойно!
F#                      G#
 Оплатят с терроризмом войны
A#m(VI)               G#
 Подкатывает к горлу ком
F#                        G#
 Как только вспомню про родной Газпром
A#m(VI)        G#
 Заплати налоги и живи спокойно
F#                         G#
 Плевать, живешь ли ты достойно
A#m(VI)               G#
 Ведь сохранили право за тобой молчать
                    F#             G#
 Здесь есть только деньги, деньги! Бабки, твою мать!
A#m(VI)              G#
 Здесь типа демократия, на самом деле царство!
F#                    G#                   A#m(VI)
 Я так люблю свою страну... и ненавижу государство
                   G#
 Государство, государство!
F#                 G#
 Государство, государство!

1|------------------------------------------------------------------------
2|--6-6-------------------9-7-6-4----6-6----------------------------------
3|-------6--8-8--6-5-6-3------------------6--8-8--6-5-6--3--6-8-8-6-5-3---
4|------------------------------------------------------------------------
5|------------------------------------------------------------------------
6|------------------------------------------------------------------------

Аккорды играем боем шестёрка.
Наверх