Аккорды Anthesteria - Metro 2033 Main Theme

Добавлено: @romashka
Дата добавления: 02 Апреля 2018г.
Рейтинг:
0.0
Просмотров: 398
Транспонировать - +
E-----------------|-----------------|-----------------|----------------------|
B-----1-3-----3---|-----0-1-----0---|-----1-3-----3---|-0------------1=0=1---|
G---------------2-|---------------2-|---------------2-|----0--2---(2)------2-|
D---2-2-3---3-----|---3-0-2---2-----|---2-2-3---3-----|-0--2--2-(2)----------|
A-0-------0-------|-0-------0-------|-0-------0-------|-------0--------------|
E-----------------|-----------------|-----------------|-3--0-----------------|

E-----------------|-----------------|-----------------|----------------------|
B-----1-3-----3---|-----0-1-----0---|-----1-3-----3---|-0------------1=0=1---|
G---------------2-|---------------2-|---------------2-|----0--2---(2)------2-|
D---2-2-3---3-----|---0-0-2---2-----|---2-2-3---0-----|-0--2--2-(2)----------|
A-0-------0-------|---------0-------|-0-------2-------|-------0--------------|
E-----------------|-3---------------|-----------------|-3--0-----------------|

E-----0-1-----0-0-|-------0-----0-0-|-----------------|----------------------|
B-------------5-3-|-----3-------5-3-|-----1-3-----3---|-0-----1--0-----------|
G---2-0-2---2-----|---2---0---2-----|---2-----------2-|----0--2--0-----------|
D-----------------|-----3-----------|-----2-3---3-----|-0--2-----------------|
A-0-------0-------|-0-------0-------|-0-------0-------|----------------------|
E-----------------|-----------------|-----------------|-3--0--1--3-----------|

E-----0-1-----0-0-|-------0-----0-0-|-----------------|----------------------|
B-------------5-3-|-----3-------5-3-|-----1-3-----3---|-0------------1=0=1---|
G---2-0-2---2-----|---2---0---2-----|---2-----------2-|----0--2---(2)------2-|
D-----------------|-----3-----------|-----2-3---3-----|-0--2--2-(2)----------|
A-0-------0-------|-0-------0-------|-0-------0-------|-------0--------------|
E-----------------|-----------------|-----------------|-3--0-----------------|
Наверх