Аккорды «Antimatter»

Antimatter
Английская группа Antimatter была основана в 1998 году бывшим музыкантом легендарного коллектива Anathema Дунканом Паттерсоном и его старым другом Майклом Моссом. Музыка Antimatter по стилю схожа с последними альбомами Anathema, но также содержит не присущие последней элементы эмбиента и трип-хопа. После двух лет сочинения материала и кое-каких демо-записей музыканты нашли Icon Records, совсем молодой австралийский лейбл. После этого можно было начинать работу над дебютным альбомом. И запись «Saviour»… Читать полностью... Английская группа Antimatter была основана в 1998 году бывшим музыкантом легендарного коллектива Anathema Дунканом Паттерсоном и его старым другом Майклом Моссом. Музыка Antimatter по стилю схожа с последними альбомами Anathema, но также содержит не присущие последней элементы эмбиента и трип-хопа. После двух лет сочинения материала и кое-каких демо-записей музыканты нашли Icon Records, совсем молодой австралийский лейбл. После этого можно было начинать работу над дебютным альбомом. И запись «Saviour» состоялась в Academy Studios (Cradle of Filth, Bal Sagoth) в сентябре 2000 года при помощи следующих известнейших людей: музыкантов Sear, Dominion, Drug Free America, Mirazma, Cradle of Filth! Это не дум и даже не металл; это - музыка для релаксации тела и разума. Их работы отчасти напоминают последние диски The Gathering, но значительно более оригинальны и осмысленны. За год, прошедший с момента выпуска этого альбома стала очевидно - группа стала лидером продаж в данном музыкальном направлении. И не только благодаря статусу сайд-проекта Anathema, а, главным образом, за счёт создания и расширения армии собственных поклонников. В декабре 2002 по данным сайта «Ultimate Metal» (произведён опрос 2 600 человек) они занимают 4 место в рейтинге «артист года», 2 место - «новичок года», и «Saviour» становится диском года! Также по данным итальянского журнала Psycho!, «Saviour» завоёвывает титулы «Album Of The Year», а группа Antimatter - «Best Newcomer of 2001». Antimatter появляются на MTV в шоу «Sorority Life» в 2002 году, а в июле 2003 года группу можно было услышать в программе Seismic Radio. Остается только порадоваться тому, что хорошая музыка постепенно находит дорогу к слушателю. В 2005 году, после выхода третьего альбома группы, Паттерсон решил покинуть Antimatter и создать собственный проект Ion, так Мик Мосс остался единственным постоянным участником группы. И при Паттерсоне, и тем более после его ухода, к работе над релизами группы привлекалось большое количество сторонних музыкантов. В июне 2006 года Мосс отправился в Fair Trade Studios в Ливерпуль, чтобы записать четвёртый альбом Antimatter под названием «Leaving Eden». Альбом создавался при участии гитариста Anathema Дэниела Кэванаха. В конце октября Мосс отправляется в тур по Норвегии вместе с Дэни и Leafblade. Через неделю немецкий хип-хоп-музыкант Bushido выпустил сингл «Sonnenbank Flavour», который включил музыку, составленную из сэмплов трека «Epitaph» с альбома «Planetary Confinement». Сингл тут же занял 15 позицию в немецких чартах. «Leaving Eden» выходит в июне 2007 года на Prophecy Productions. Остаток года Мосс провёл, гастролируя в поддержу альбома. В рамках тура он побывал в Голландии, Бельгии, Франции, Польше, Греции, Турции, Сербии, Хорватии, Австрии, Италии, Латвии и в Эстонии. 18 августа 2007 года Bushido выпускает сингл «Von Der Skyline zum Bordstein Zuruck», где вновь была использована музыка Antimatter (трек «Terminal» с альбома «Lights Out»). На этот раз релиз занимает уже 14 место в немецких чартах. В апреле 2008 года Antimatter отправляются на польский Art Rock Festival, который проходит в Познани. Позже в этом году Мосс инициирует воссоединение с Дунканом Пэттерсоном с целью отыграть совместные шоу под вывеской «An Evening Of Antimatter, Anathema and Ion Music». Концерты включили в себя треки из бэк-каталога обоих авторов. Первый тур в этом формате начался в сентябре: Пэттерсон и Мосс посетили такие страны, как Португалия и Испания, а на протяжении года они заехали в Венгрию, Румынию, Италию, Финляндию, Францию, Польшу и Латвию. Позднее Мосс анонсировал сборник «Alternative Matter», посвященный десятилетней карьере проекта. Сюда вошли альтернативные треки и демо, ранее не изданные. В 2009 году Мосс открыл собственный лейбл Music In Stone, первым релизом которого стал концертник «Live@An Club», записанный в прошлом году в Афинах, Греция. Релиз состоялся в апреле 2009-го, а в это же время состоялось и третье воссоединение Мосса и Пэттерсона. Через месяц они отправились на фестиваль Wave Gotik Treffen (Лейпциг, Германия). Осенью 2009 года турецкий фотограф и кинорежиссёр Фетхи Карадуман опубликовал промо-видео на песню «Epitaph» с альбома «Planetary Confinement». В это же время Мосс завершает работу над «Alternative Matter», который забрал у него 9 месяцев. Релиз состоялся в ноябре 2010 года в двух версиях: двухдисковый диджипак и четырёхдисковый арт-бук, включающий в себя DVD, бонусный миньон, получасовую документалку, 100-страничный буклет с фотографиями и два промо-видео. В мае 2011 года Antimatter выступили в поддержку Marillion в Англии, а также побывали в таких странах, как Франция, Армения, Голландия и Польша. Летом 2011 года Мик отправился в Sandhills Studios в Ливерпуль, чтобы начать запись пятого полноформатного альбома. В звукозаписывающих сессиях приняли участие такие музыканты, как ударник Колин Фромент, вокалистка Vic Anselmo и скрипач Дэвид Холл. В марте материал был отправлен на сведение, а в 2012 году альбом «Fear Of A Unique Identity» увидел свет. Скрыть...
Популярные аккорды Antimatter:
алфавиту | просмотрам | случайно
  • Intro:
    |-------------------------------------------------------------------------|
    |--------------------------------6----------------------------------------|
    |--------5-5--5---5------5-5---5---5------5-5--5---5---------5-5---5---5--|
    |-----5---------5------5-----5----------5--------5---------5-----5---5----|
    |--3----------------------------------------------------------------------|
    |--------------------4----------------1------------------4----------------|
    
    |-----------------------------------------------------------------|
    |--------------------------------6-----------------------------6--|
    |-------5-5---5---5------5-5---5---5------5-5---5---5------5------|
    |-----5-----5---5------5-----5----------5-----5---5------5---5----|
    |--3--------------------------------------------------------------|
    |--------------------4----------------1----------------4----------|
    
    Verse…
  • em   em+d#  em+f#    a9    cmaj7
    e|---0-----0------0-------0------0-------|
    B|---0-----0------0-------0------0-------|
    G|---0-----0------0-------2------0-------|
    D|---2-----1------2-------2------2-------|
    A|---2-----2--------------0------3-------|
    E|---0-----0------2----------------------|
    
    
    
    VERSE…
  • D9  D9+C  A#   DM    C   A#+G   EM   FMAJ7   AM    G
    e|--0----0----0----1----3----3-----0------0------0----0--|
    B|--3----3----3----3----3----3-----0------1------1----0--|
    G|--2----2----3----2----0----3-----0------2------2----0--|
    D|--0---------0----0----2----0-----2------3------2----0--|
    A|-------3--------------3----------2------3------0----2--|
    E|---------------------------------0------------------3--|
    
    
    INTRO…
  • AM      G      D9      C       E
    e|-0-------0------0-------0-------0-----------|
    B|-1-------0------3-------1-------0-----------|
    G|-2-------0------2-------0-------1-----------|
    D|-2-------0------0-------2-------2-----------|
    A|-0-------2--------------3-------2-----------|
    E|---------3----------------------0-----------|
    
    
    (AM)Cau(G)tiously…
  • F      A9     G      E    CMAJ7   EM   FMAJ7
    
    e|---0------0------0------0------0------0------0---|
    B|---0------0------0------0------0------0------1---|
    G|---2------2------0------1------0------0------2---|
    D|---3------2------0------2------2------2------3---|
    A|---3------0------2------2------3------2------3---|
    E|---1-------------3------0-------------0----------|
    
    VERSE…
  • bm   gmaj7    em9   em     g
    
    e|-----------------------0-----3-----|
    B|---0-----0-------0-----0-----3-----|
    G|---0-----0-------0-----0-----0-----|
    D|---4-----4-------4-----2-----0-----|
    A|---2-------------------2-----2-----|
    E|---------3-------0-----0-----3-----|
    
    
    (bm)I…
Наверх