Аккорды Антитіла - У книжках

Добавлено: @romashka
Дата добавления: 30 Декабря 2017г.
Рейтинг:
0.0
Просмотров: 244
Транспонировать - +
Куплет:
1|------------------------------------------------------------
2|-8-8-8--10-10-10-7-7-7--8-8-8--5-5-5--4-4-4--5-5-5--4-5-6-7-
3|------------------------------------------------------------(повтор)
4|------------------------------------------------------------
5|-7-7-7--9--9--9--6-6-6--7-7-7--3-3-3--2-2-2--7-7-7--2-3-5-6-
6|------------------------------------------------------------

Зупинись, потяг
Доїдемо потім
Бачиш: коридор, тато
Речей небагато.
Знаєш, а то ж я
Намалював собі братика на столі
І, мабуть, тепер він дізнався, і на мене заображався
Па, чесно, більше не зроблю так.
Швидше знімай рюкзак і давай гратись
Я ж іще не вмію прощатись.

Припев:
1|-------------------------------------------------------
2|-5-5-5--1-1-1--8-8-8--7-7-7--5-5-5--4-4-4--5-5-5-5-5-5-
3|------------------------------------------------------- (повтор)
4|-------------------------------------------------------
5|-3-3-3--0-0-0--7-7-7--5-5-5--3-3-3--2-2-2--7-7-7-7-7-7-
6|-------------------------------------------------------

І в книжках, колись в книжках
Розцілує посмішку знайому
Вже сам до підвіконня дотягнувся
І нарешті тато повернувся
У назвах вулиць, а він чекав удома.

Em
Віршик вивчу
C
І на стілець вище.
B
Буду для тебе старатись
Em
І слова не забувати.
C
Тату, а чому, твої стали очі червоні
B
Справді, треба і ніхто інший за тебе.

Припев:
1|-------------------------------------------------------
2|-5-5-5--1-1-1--8-8-8--7-7-7--5-5-5--4-4-4--5-5-5-5-5-5-
3|------------------------------------------------------- (повтор)
4|-------------------------------------------------------
5|-3-3-3--0-0-0--7-7-7--5-5-5--3-3-3--2-2-2--7-7-7-7-7-7-
6|-------------------------------------------------------

І в книжках, колись в книжках
Розцілує посмішку знайому
Вже сам до підвіконня дотягнувся
І нарешті тато повернувся
У назвах вулиць, а він чекав удома

Куплет:
1|------------------------------------------------------------
2|-8-8-8--10-10-10-7-7-7--8-8-8--5-5-5--4-4-4--5-5-5--4-5-6-7-
3|------------------------------------------------------------(повтор)
4|------------------------------------------------------------
5|-7-7-7--9--9--9--6-6-6--7-7-7--3-3-3--2-2-2--7-7-7--2-3-5-6-
6|------------------------------------------------------------

Зупинись, потяг
Доїдемо потім
Бачиш: коридор, тато
Речей небагато.
Знаєш, а то ж я
Намалював собі братика на столі
І, мабуть, тепер він дізнався, і на мене заображався
Па, чесно, більше не зроблю так.
Швидше знімай рюкзак і давай гратись
Я ж іще не вмію прощатись.

Припев:
1|-------------------------------------------------------
2|-5-5-5--1-1-1--8-8-8--7-7-7--5-5-5--4-4-4--5-5-5-5-5-5-
3|------------------------------------------------------- (повтор)
4|-------------------------------------------------------
5|-3-3-3--0-0-0--7-7-7--5-5-5--3-3-3--2-2-2--7-7-7-7-7-7-
6|-------------------------------------------------------

І в книжках, колись в книжках
Розцілує посмішку знайому
Вже сам до підвіконня дотягнувся
І нарешті тато повернувся
У назвах вулиць, а він чекав удома.

Em
Віршик вивчу
C
І на стілець вище.
B
Буду для тебе старатись
Em
І слова не забувати.
C
Тату, а чому, твої стали очі червоні
B
Справді, треба і ніхто інший за тебе.

Припев:
1|-------------------------------------------------------
2|-5-5-5--1-1-1--8-8-8--7-7-7--5-5-5--4-4-4--5-5-5-5-5-5-
3|------------------------------------------------------- (повтор)
4|-------------------------------------------------------
5|-3-3-3--0-0-0--7-7-7--5-5-5--3-3-3--2-2-2--7-7-7-7-7-7-
6|-------------------------------------------------------

І в книжках, колись в книжках
Розцілує посмішку знайому
Вже сам до підвіконня дотягнувся
І нарешті тато повернувся
У назвах вулиць, а він чекав удома
Наверх