Аккорды Антитіла - Буде син

Добавлено: @romashka
Дата добавления: 05 Февраля 2020г.
Рейтинг:
0.0
Просмотров: 35
Транспонировать - +
Вступ:
       G#7 G7     G#7 G7     G#7 G7
1|------4--3-------4--3-------4--3--
2|------4--3-------4--3--4----4--3--
3|---4--5--4--4----5--4----5--5--4--
4|------4--3----5--4--3-------4--3--
5|------6--5-------6--5-------6--5--
6|-3----4--3-------4--3-------4--3--

Куплет:
       C                     Am                  F              G#         G
1|-----------------|---------------------|-----------------|---------|---------
2|-----1-------1---|-----1-------1h3p1---|-----------------|---------|---------
3|-----------------|-------------------2-|-----2-------2---|-----4---|-----4---
4|---2---2---2---2-|---2---2---2---------|-------3-------3-|------6--|-------5-
5|-3-------3-------|-0-------0-----------|---3-------3-----|---6---6-|---5-----
6|-----------------|---------------------|-1-------1-------|-4-------|-3-------

       C                     Am                  F              G#      G
1|-----------------|---------------------|-----------------|---------|--3--
2|-----1-------1---|-----1-------1h3p1---|-----------------|---------|--3--
3|-----------------|-------------------2-|-----2-------2---|-----4---|--4--
4|---2---2---2---2-|---2---2---2---------|-------3-------3-|------6--|--5--
5|-3-------3-------|-0-------0-----------|---3-------3-----|---6---6-|--5--
6|-----------------|---------------------|-1-------1-------|-4-------|--3--

Приспів:
         C                  Am                F                 G
1|-----------------|-----------------|-----------------|-----------------
2|-----1-------1---|-----1-------1---|-----------------|-----------------
3|-----------------|-----------------|-----2-------2---|-----4-------4---
4|---2---2---2---2-|---2---2---2---2-|---3---3---3---3-|---5---5---5---5-
5|-3--3----3--3----|-0--0----0--0----|-----------------|-----------------
6|-----------------|-----------------|-1--1----1--1----|-3--3----3--3----

         C                  Am                F                 G
1|-----------------|-----------------|-----------------|-----------------
2|-----1-------1---|-----1-------1---|-----------------|-----------------
3|-----------------|-----------------|-----2-------2---|-------4---4-5-7-
4|---2---2---2---2-|---2---2---2---2-|---3---3---3---3-|-----5---5-------
5|-3--3----3--3----|-0--0----0--0----|-----------------|-----------------
6|-----------------|-----------------|-1--1----1--1----|-3---------------

C
Лила злива і Карпати
Am
У полон взяла вода
F
У твоїх очах був космос
G# G
Я ловив
C
Ти просила заспівати
Am
А я плутався в думках
F
Я ж нікого ще так сильно
G# G
Не любив

Приспів:
C
Я хочу стати тим
Am
Від кого буде син
F
Із ким збудуєш дім
G
Я хочу стати тим
С
Я хочу стати тим
Am
Від кого буде син
F
А потім ще одна
G
А потім ще один

C
Я не знаю, що в нас далі
Am
Знаю точно лиш одне
F
Найсильніше слово в світі
G# G
Слово "ми"
C
Є нюанси і деталі
Am
Але як тут не крути
F
Ідеальне співпадіння
G# G
Я і ти

Приспів:
C
Я хочу стати тим
Am
Від кого буде син
F
Із ким збудуєш дім
G
Я хочу стати тим
С
Я хочу стати тим
Am
Від кого буде син
F
А потім ще одна
G
А потім ще один

C
Лила злива і Карпати
Am
У полон взяла вода
F
У твоїх очах був космос
G# G
Я ловив
Наверх