Аккорды Аракс - Синева, пустота, тишина

Добавлено: @romashka
Дата добавления: 27 Марта 2021г.
Рейтинг:
0.0
Просмотров: 44
Транспонировать - +
Вступление

Em9

E|--------------------------------------------------|

H|-------3--------------3----------3--------------3-|

G|-----0----0---------0----------0----0---------0---|

D|---4--------4-----4----------4--------4-----4-----|

A|--------------2-------------------------2---------|

E|-0--------------0----------0--------------0-------|

 

Cadd9

E|----------0-------------------------0-------------|

H|-------3----3---------3----------3----3---------3-|

G|-----0--------0-----0----------0--------0-----0---|

D|---2--------------2----------2--------------2-----|

A|-3--------------3----------3--------------3-------|

E|--------------------------------------------------|


Em9                 Cadd9     
Мирно дремлет мир мой древний,
Em9                   G
Мерной поступью минуют времена
C                  Hm    
В вышине, в холодном небе -
Am7       D        Em9
Синева, пустота, тишина,
C        H7      Em
Синева, пустота, тишина

Проигрыш=Вступление

Я ничем почти не связан,
Я бы мог с последней стаей улететь
Отзовись, пугливый разум,
Am7     D             Em   
Помоги мне, откликнись, ответь!

Припев

Hm  Am7 Em    C  G  D F#
И опять небо упадёт, землю леденя,
Hm  Am7  Em     C Hm  H7
Занесёт снегом, заметёт вьюгой без меня


Станет пусто, станет пыльно
В старом доме у потухшего огня,
Где меня почти забыли,
Am7         D    Em  C
Где всегда не хватало меня,
Em          C   Hm  H7
Где всегда не хватало меня

Проигрыш=Вступление

Я уйду почти неслышно...
Задержи меня, окликни, догони!
Дни идут, я не хочу быть лишним
В эти слишком спокойные дни

Припев

Мирно дремлет мир мой древний,
Мерной поступью минуют времена
В вышине, в холодном небе -
Синева, пустота, тишина,
C         H7    Em
Синева, пустота, тишина
Наверх