Аккорды Arctic Monkeys - No Buses

Добавлено: @romashka
Дата добавления: 20 Апреля 2022г.
Рейтинг:
0.0
Просмотров: 47
Транспонировать - +
Capo on 4th fret
 
 
   Em*   Cmaj7*   C7*    Dm*    A*     G*      G6     D#*    E7*    A7*
e|-------------------------------------7-------7--------------------9----------------------|
B|-12-----9-------9------10------------7-------9------11-----13-----9----------------------|
G|-13-----8-------7------11-----10-----8-------8------12-----11-----10---------------------|
D|-13-----9-------9------11-----11-----9-------x------12-----13-----9----------------------|
A|-11-----7-------7------9------11-----9-------9------10-----11-----11---------------------|
E|------------------------------9------7-------7--------------------9----------------------|
 
Note F:
e|----|
B|-1--|
G|-2--|
D|-3--|
A|-3--|
E|----|
 
 
 
[Intro]
 
e|--7--4--4----5--9--7----5--9---11--9---9---7--7--7------|
B|--9--5--4----5--10-9----5--10--12--9---10--7--9--9------|
G|--9--6--4----6--9--9----6--11--13--10--11--8--8--9------|
D|--------------------------------------------------------|
A|--------------------------------------------------------|
E|--------------------------------------------------------|
 
 
[Verse 1]
 
C      Am             Em*       Cmaj7*
Lady, where has your love gone?
      F                 Dm*         Cmaj7*  C7*
I was looking but can't find it anywhere
F           Dm*                 Em*               A*
They always offer when there's loads of love around
                 Dm*                  G*    G6    C
But, when you're short of some it's nowhere to be found
 
 
C        Am        Em*      Cmaj7*
Well, I know your game, you told him yesterday
F           Dm*                 Cmaj7*   C7*
No chance, you'll get nothin' from me
         F            Dm*          Em*          A*
But now she's there, you're there, everybody's there
        Dm*          G*     G6     C
He's in turmoil, as puzzled as can be
 
 
[Chorus]
 
        C7
Just like me
        F                E
Lets go down, down, low down
          Am               Dm
Where I know I should not go
       F                     E
Oh and she thinks she's the one
               Am      Dm
But she's just one in 24
               F    F     F
And just cause everybody's doin' it
           E        E  E
Does that mean that I can, too?
 
 
[Verse 2]
 
C      Am             Em*     Cmaj7*
Lady, where has your love gone?
    F            Dm*          Cmaj7*   C7*
He was the antiseptic to the sore
F                   Dm*          Em*          A*
To hold you by the hand must be first be in demand
        Dm*              G*      G6     C
How he longs for you to long for him once more
 
 
[Chorus]
 
           C7
Just once more
        F                E
Lets go down, down, low down
          Am               Dm
Where I know I should not go
       F                     E
Oh and she thinks she's the one
               Am      Dm
But she's just one in 24
               F    F      F
And just cause everybody's doin' it
           E        E  E
Does that mean that I can, too?
 
 
[Bridge]
 
Am                Em   Em* D#* Dm*
Her eyes went down and cut you up
              G*
And there's nothing like a dirty look from
Am          Em           Em* D#*    Dm*     G*
The one you want, or the one you've lost
 
 
[Outro]
 
C       Am      Em*                 F
An ache in your soul is everybody's goal
   Dm*            Cmaj7*         C7*
To get what they can't have
            F         Dm*                E7*
That's why your after her and that's why she's after him
    A7*                    Dm*       G*  G6       C
But saying it won't change a thing
 
C             Dm*        G*       G6       C        A7
And they'll realize that it won't change a thing
Dm*        G*      G6       C
Realizing it won't change a thing.
 
 
[Little Outro Riff]
 
e|-------------------------------------------------------------------------|
B|-------------------------------------------------------------------------|
G|-------------16--18--16--------------------------------------------------|
D|-----16--18--------------18--16--14--------------------------------------|
A|-------------------------------------------------------------------------|
E|-------------------------------------------------------------------------| 
Наверх