Аккорды Arctic Monkeys - Fake Tales of San Francisco

Добавлено: @romashka
Дата добавления: 11 Декабря 2013г.
Рейтинг:
0.0
Просмотров: 621
Транспонировать - +
Main Riff (Intro and Verses):

e |---------------------------------------------------------------------|
B |---------------------------------------------------------------------|
G |---------------------------------------------------------------------|
D |----------------------------------------------------------7----------|
A |-----5-----5-7-5-----5-----5-7-5-----5-----5-7-5----5-7-9---9-7-5----|
E |--7-----7---------7-----7---------7-----7---------7---------------7--|

Second Guitar (During Verses:

e |--7-7---5---7-7---5---7-7---5--|
B |--7-7---5---7-7---5---7-7---5--|
G |-------------------------------|
D |-------------------------------|
A |-------------------------------|
E |-------------------------------|


Bridge (x4):

Guitar 1:

e|----------------------------------------------------------------|
B|----------------------------------------------------------------|
G|--------------------------------9999999999999999----------------|
D|9999999999999999555555555555555599999999999999999999999999999999|
A|9999999999999999555555555555555577777777777777779999999999999999|
E|77777777777777773333333333333333----------------7777777777777777|

Guitar 2:

e|------------------------------------------------------------------|
B|------------------------------------------------------------------|
G|------------------------------------------------------------------|
D|9999999999999999555555555555555522222222222222229999999999--------|
A|9999999999999999555555555555555522222222222222229999999999----7-9-|
E|7777777777777777333333333333333300000000000000007777777777-10-----|

Outro:

e |--7-7---5----------------------|
B |--7-7---5------Play 8 Times----|
G |-------------------------------|
D |-------------------------------|(Second guitar joins after first 2)
A |-------------------------------|
E |-------------------------------|

End on:

e |--7--|
B |--7--|
G |-----|
D |-----|
A |-----|
E |-----|
Наверх