Аккорды Ария - Ночь короче дня

Добавлено: @romashka
Дата добавления: 13 Октября 2022г.
Рейтинг:
0.0
Просмотров: 67
Транспонировать - +
Riff 1:
E----------------------------------------------------------------------------------------
B----------------------------------------------------------------------------------------
G----------------------------------------------------------------------------------------
D----------------------------------------------------------------------------------------
A----------2--1---------------------2--1--------------5-----2--0-------------------------
E--0---------------3--2------0--------------3--2-------------------3--2------0------2----1
Riff 2:
E----------------------------------------------------------------------------------------
B----------------------------------------------------------------------------------------
G----------------------------------------------------------------------------------------
D----------------------------------------------------------------------------------------
A----------2--1---------------------2--1--------------5-----2--0-------------------------
E--0---------------3--2------0--------------3--2-------------------3--2------3----5------

------------------------------------------------------------------------------------------

[Вступление]: Em | Em | D | Em
Em | Em | D | Em

t=90
E-7---5--7-------5--7--8---------------
B-------------------------------------- x7

E-7---5--7-----------------------------

E5 x7 A#sus4

E5                               F# F
Мне не до сна палач придет на рассвете
E5                       C5        D5
И звук шагов за дверью бьет словно нож
E5                                  F# F
Но в клетку входит не гонец верной смерти
E5                  C5     D5
А, в рясе черной, Святая Ложь

E5                               F# F
Святой отец принес во тьму слово божье
E5                  C5       D5
И вечной жизни мне сулил чудеса
E5                                       F# F
"Ты - смертник, и вернуться к Богу ты должен"
E5                 C5        D5
Шептал священник и лгал в глаза

B5 B5
"Кайся, сын
C5 C5
Земная жизнь
D5 D5           E5
Прелюдия к другой
B5 B5
На стене
C5 C5
Своей тюрьмы
D5 D5             B5 C5 D5
Увидишь лик святой!"

Riff 1
Ночь короче дня
День убьет меня
Мир иллюзий в нем сгорает
Riff 2
Ночь короче дня
День убьет меня
Все живое исчезает как и я...

C C Em Em
C C Em Em

E5                             F# F
Блаженство рая я оставлю для нищих
E5                         C5     D5
У нищих духом должен быть Царь и Бог
E5                             F# F
Я - тварь земная и на небе я лишний
E5                       C5       D5
И к черту вечность, какой в ней прок?

E5                             F# F
Пускай я должен испытать муки ада
E5                        C5        D5
Пускай толпа на казнь бежит со всех ног
E5                              F# F
Мне крики ненависти станут наградой
E5                   C5      D5
Я буду в смертный час не одинок

B5 B5
Луч зари
C5 C5
К стене приник
D5 D5           E5
Я слышу звон ключей
B5 B5
Вот и все...
C5 C5
Палач мой здесь
D5 D5           B5 C5 D5
Со смертью на плече

Riff 1
Ночь короче дня
День убьет меня
Мир иллюзий в нем сгорает
Riff 2
Ночь короче дня
День убьет меня
Все живое исчезает как и я...
C C Em Em
C C Em Em

C C Em Em
исчезает как и я...

C C Em Em x4

Em | C | Am | F
Em C D D Em C F x2

D
Ночь короче дня
С
День убьет меня
A#                     C
Мир иллюзий в нем сгорает
D
Ночь короче дня
C
День убьет меня
A#                       C
Все живое исчезает как и я...
Dm 
Наверх