Аккорды Ария - Колизей

Добавлено: @romashka
Дата добавления: 20 Октября 2022г.
Рейтинг:
0.0
Просмотров: 27
Транспонировать - +
Строй : Eb (Half Step Down)


Riff: 1

D#---------10-----------9-------(9)----
A#-------------------------------------
F#------7-----------7------------------
C#--9-----------9----------------------
G#-------------------------------------
D#-------------------------------------

Riff: 2

D#---------10-----------7-------(7)----
A#-------------------------------------
F#------7-----------7------------------
C#--9-----------9----------------------
G#-------------------------------------
D#-------------------------------------

Riff: 3
D#-------------------------------------
A#-------------------------------------
F#-------------------------------------
C#-----4-----2-------------------------
G#-2-----2-------5---------------------
D#-------------------------------------

Riff: 4
D#-------------------------------------
A#-------------------------------------
F#-------------------------------------
C#-------------------------------------
G#-----4------2------------------------
D#-2------2-------5--------------------


[Вступление]: B5
B5 B5 F5(VIII)
B5 B5 G5(X)

B5 | B5

B5            A5 B5
Боги прокляли спятивший Рим
A5              G#5 A5
Город брошенных женщин и калек.
G#5            G5 G#5
Здесь глотают отравленный дым,
G5    F#5 G5       C5
Режут лезвием вены

B5                  A5 B5
Здесь по праздникам ходят смотреть,
A5              G#5 A5
Как в агонии бьется человек,
G#5            G5 G#5
Как пирует свирепая смерть
G5                    F#5
В желтом круге арены.

E5(VII)        D5 E5(VII)
Сила приносит свободу,
B5         A5            E
Побеждай и станешь звездой
E/H    E/H
А может
Em/H  Em/H G5 F#5 F5 E5 G5 F#5 F5 E5 G5 F#5 F5 E5 G5 F#5 F5 E5
Обретешь покой

B5
Твой враг в пыли
D5
Жалок и слаб,
E5
Загнанный зверь,
Em/H
Раненый раб
B5             D5
Еще секунда и скажет "Убей!"
E5(VII)          G5 G5 A5 A5
Перст императора
B5
Святой судьбе
D5
Не прекословь!
E5
Воет толпа,
Em/H
Чувствует кровь,
B5
Не стоит скорби
D5
Ни жен, ни друзей
E5(VII)          G5 A5
Жизнь гладиатора
B5
Колизей

[Проигрыш]:
B5 B5 F5(VIII)
B5 B5 G5(X)


B5               A5 B5
Словно псы, что дерутся за кость,
A5           G#5 A5
Обреченные рвут друг другу плоть.
G#5            G5 G#5
В их глазах не азарт и не злость,
G5       F#5  G5     C5
Ничего кроме боли

B5           A5 B5
Ты один не сломался, не лег
A5          G#5 A5
От ударов хранил тебя Господь
G#5            G5 G#5
Видишь, Цезарь сошел на песок
G5                   F#5
Наградить тебя волей

E5(VII)        D5 E5(VII)
Сила приносит свободу,
B5         A5            E
Побеждай и станешь звездой
E/H    E/H
А может
Em/H  Em/H G5 F#5 F5 E5 G5 F#5 F5 E5 G5 F#5 F5 E5 G5 F#5 F5 E5
Обретешь покой

[Припев]:
B5
Твой враг в пыли
D5
Жалок и слаб,
E5
Загнанный зверь,
Em/H
Раненый раб
B5             D5
Еще секунда и скажет "Убей!"
E5(VII)          G5 G5 A5 A5
Перст императора
B5
Святой судьбе
D5
Не прекословь!
E5
Воет толпа,
Em/H
Чувствует кровь,
B5
Не стоит скорби
D5
Ни жен, ни друзей
E5(VII)          G5 A5
Жизнь гладиатора
B5
Колизей

B5

Riff 1 x2 |
Riff 2    | x2
Riff 1    |

[Соло]:
E5 B5 D5 A5 x2
B5 B5

Bm
Помнишь,
Bm
Ты ведь помнишь,
Bm Am F#m
Ты был гордым мудрым вождем
Bm
Помнишь,
Bm
Ты ведь помнишь,
Bm Am F#m
Как вошли солдаты в твой дом
Riff 3   Riff 3
Ты встречал рассвет
Riff 4    Riff 4
Среди выжженных скал
Riff 3   Riff 3
Время шло, и вот
Riff 4    Riff 4
Час расплаты настал

E5(VII)        F#5(VIII) G5(IX)
Хлеба и зрелищ народу
A5 B5 A5 B5 A5 B5 D5 B5 x 2
Через край!
E5(VII)          D5 C5
Сила приносит свободу,
G5 A5 G5 A5 G5 A5 G5 C5 A5
Побеждай!

B5

B5
Твой враг в пыли
D5
Жалок и слаб,
E5
Загнанный зверь,
Em/H
Раненый раб
B5                D5
И выбил искры из серых камней
E5(VII)      G5 G5 A5 A5
Меч гладиатора
B5
Святой судьбе
D5
Не прекословь!
E5
Воет толпа,
Em/H
Чувствует кровь,
B5
Не стоит скорби
D5
Ни жен, ни друзей
E5(VII)        G5 A5
Жизнь императора

B5   D5  E5 Em/H
Колизей
B5   D5  E5 Em/H
Колизей

[Кода]:
B5 | D5 | E5 | Em/H
B5 | D5 | E5
G5 | A5
B5 | B5
Наверх