Аккорды Ария - Возьми моё сердце

Добавлено: @romashka
Дата добавления: 16 Марта 2013г.
Рейтинг:
5.0
Просмотров: 292
Транспонировать - +
intro:
E|---------|---------|---------|---------|
B|-------3-|-------3-|---------|---------|
G|-----2---|-----1---|-------2-|-------1-|
D|-0-3-----|-0-2-----|-0-2-3---|-0-2-3---|
A|---------|---------|---------|---------|
E|---------|---------|---------|---------|

(перебор в скобках)

Dm(43231)       A(53231) F(63231)     A(53231)
Слепая ночь легла у ног и не пускает за порог
Брожу по дому как во сне, но мне покоя нет нигде

(как это ложится на слова разберись сам)
   баре III                   Dm
E|---------3-----------3---------------1-----------1-----|
B|-----3-----------------3---------3-----------------3---|
G|---3---3-----------------3-----2---2----1------------2-|
D|-----------------------------0-------------------------|
A|------------4------------------------------------------|
E|-3-----------------------------------------------------|

Тупая боль пробьет висок, и пальцы лягут на курок

   баре III
E|---------3-----------3-----|
B|-----3-----------------3---|
G|---3---3-----------------3-|
D|---------------------------|
A|------------4--------------|
E|-3-------------------------|
                               B          A
А в зеркалах качнется призрак, призрак любви

Припев:

           Dm                 F
Возьми мое сердце, возьми мою душу,
         Gm                          C
Я так одинок в этот час, что хочу умереть,
           Dm                    F
Мне некуда деться, свой мир я разрушил,
              Gm                          C
По мне плачет только свеча, на холодной заре...

[II Куплет skip]

/Припев/

F       B       C        F          B     C
Я слышу утрений колокол,  он славит праздник,
F        B       C       Dm                   A
И звоном небо расколото,  ты теперь в царстве вечного сна.
Я слышу утрений колокол,  он беса дразнит,
И сыпет медью и золотом,   на земле я любил лишь тебя...

           Dm
Возьми мое сердце...
comments powered by Disqus
Наверх