Аккорды «Ash»

Ash
Музыку этого коллектива из североирландского города Даунпатрик зачастую описывают как брит-поп, хотя на самом деле стиль "Ash" представляет собой нечто среднее между панком, гранжем и хард-роком. В конце 80-х двенадцатилетние мальчишки Тим Вилер (р. 4 января 1977) и Марк Гамильтон (р. 21 марта 1977) еще предпочитали гонять футбол, когда вдруг открыли для себя мир музыки. Подсев на творчество "Iron Maiden" они поделили между собой гитару и бас и организовали трибьютную команду "Vietnam". В начале… Читать полностью... Музыку этого коллектива из североирландского города Даунпатрик зачастую описывают как брит-поп, хотя на самом деле стиль "Ash" представляет собой нечто среднее между панком, гранжем и хард-роком. В конце 80-х двенадцатилетние мальчишки Тим Вилер (р. 4 января 1977) и Марк Гамильтон (р. 21 марта 1977) еще предпочитали гонять футбол, когда вдруг открыли для себя мир музыки. Подсев на творчество "Iron Maiden" они поделили между собой гитару и бас и организовали трибьютную команду "Vietnam". В начале 90-х, когда взошла звезда гранжа, группа распалась, а Тим и Марк, находившиеся под впечатлением песен "Nirvana" и местных панков "Lazer-Gun Nun", организовали новый проект, "Ash". Лето 1992-го выдалось для парней жарким – они мотались с концертами между Даунпатриком и Белфастом и в то же время успели записать порядка 50 композиций. Нарезав несколько демок, имевших локальный успех, ребята сообразили, что в родном захолустье им не выбиться в люди, и попытались переправить свои пленки в Лондон. В 1994-м вышел их первый сингл "Jack names the planets", подхваченный эфиром "Radio One", после чего "Ash" заключили контракт с лейблом "Infectious Records". В том же году группа провела пару британских туров, выстрелила по верхушке инди-чартов синглами "Petrol" и "Uncle Pat" и выпустила мини-альбом "Trailer". В 1995-м парни наконец-то окончили школу и теперь уроки не мешали их любимому занятию. После пары хит-синглов, "Kung Fu" и "Girl from Mars" они отправились в мировое турне, оставляя за собой разгромленные гостиничные номера и разбитые сердца фанаток. В 1996-м "Ash" под присмотром продюсера Оуэна Морриса на три месяца закрылись в студии, в результате чего на свет появилась их дебютная полнометражка, "1977". Альбом, пришедшийся на самый расцвет брит-попа, ворвался на вершину национальных чартов, а фотографии музыкантов украсили обложки журналов типа "Smash Hits" и "NME". Последующие несколько месяцев коллектив провел в интенсивных гастролях, в середине которых в составе появилась гитаристка Шарлотта Хатерли. Хотя группа продолжала клепать хит-синглы, работа над вторым студийным альбомом шла тяжело. У Вилера наметился творческий кризис, а, кроме того, дело осложнялось проблемами с продюсерами. Так или иначе, но осенью 1998-го "Nu-Clear Sounds" вышел в свет. Альбом в отличие от своего предшественника получился более тяжелым и мрачным, что ввергло в недоумение поклонников "Ash". Сами музыканты тоже оказались в растерянности и решили сделать перерыв в своей деятельности. Тим сбежал в Нью-Йорк, где начал снимать какое-то кроваво-наркотическое видео, а остальные вернулись домой поразмыслить над будущим. В 2000 году четверка вновь собралась вместе и отправилась в солнечную Испанию записывать свой третий опус. На этот раз дело шло значительно веселее и альбом получился что надо. Сопровождаемый хитами "Shining light" и "Burn baby burn", "Fallen all angels" устремился к вершине чартов, сбросив оттуда Джанет Джексон. В 2004-м последовало чуть менее удачное продолжение, "Meltdown", а на следующий год группа участвовала в работе над саундтреком к игре "Republic Commando". Начало 2006-го было отмечено уходом Шарлотты, и "Ash" вновь вернулись к формату трио. Скрыть...
Популярные аккорды Ash:
алфавиту | просмотрам | случайно
  • VERSE      
      G         C         D                            
    g--------------------------------
    d--------------------------------
    a-----------3-3-3-3-3-5--5--5--5-
    e-3-3-3-3-3----------------------
    
      E    C         B…
  • INTRO (and over verse)
    Chords B E C#m F#
    
    E 11--11--11--11--11--11--11--11-12-|
    B --12--12--12--12--12--12--12------|
    
    E 11--11--11--11--11--11--11-11-12-11-|
    B --12--12--12--12--12--12------------|
    
    VERSE…
  • Chorus 1
    
    A                     E                                     Dmaj7     
      do you remember the time when you were the girl from mars
            Bm
    I don't know if you knew that
    A                            E…
  • Intro-most of these are pull offs
    e------------------------------------------
    b------------------------------------------
    g------------------------------------------
    D------------------------------------------ x4
    A--6--3--6--3--6--3----5--3--5--3--5--3----
    E------------------------------------------
    
    verse
    e------------------------------------------
    b------------------------------------------
    g------------------------------------------
    D------------------------------------------…
  • VERSE:
    e---------------------------|
    B---------------------------|
    G-9-9----------9-9----------|
    D-9-9-9-9-9----9-9--7-7-7-7-|
    A-7-7-9-9-9----7-7--7-7-7-7-|
    E-----7-7-7---------5-5-5-5-|
    
    CHORUS:
    e-------------------------|
    B-------------------------|
    G----6--6-6-6----8--8-8-8-|
    D-6--6--6-6-6-8--8--8-8-8-|
    A-6--4--4-4-4-8--6--6-6-6-|
    E-4-----------6-----------|
    
    repeat…
  • Intro part 1                   (played quickly)
    e----------------------------------|
    B----------------------------------|
    G----------------------------------|
    D----------------------------------|      play 4 times  (use…
  • CHORDS
            C      G    Fmaj7    Am   Fm/maj7  Em     Dm  
    E|------0------3-------------0------1------0------1------|
    B|------1------0------1------1------1------0------3------|
    G|------0------0------2------2------1------0------2------|
    D|------2------0------2------2------2------2------0------|
    A|------3------2------X------0------3------2-------------|
    E|-------------3------1-------------1------0-------------|
    
    INTRO
    C…
  • Parts:		Intro
    Missing:	All except Intro
    
    
    E|--5---2----------------------------------------------------|
    B|--5---2--2---4--4bend--4----2------------------------------|
    G|---------2---4--4------4----2------------------------------|
    D|-----------------------------------------------------------|
    A|-----------------------------------------------------------|
    E|-----------------------------------------------------------|
    
    E|--5---2----------------------------------------------------|
    B|--5---2--2---4---------------------------------------------|
    G|---------2---4---------------------------------------------|
    D|-----------------------------------------------------------|
    A|-----------------------------------------------------------|
    E|-----------------------------------------------------------|…
  • Eb#5   Eb5#5(i think!) C#    F#  F#sus4  F#
    
    e----x-------x--------------9-----9----9------9---|
    b----12------12-------------9-----11---12-----11--|
    g----x-------15-------------10----11---11-----11--|
    d----13------13-------------11----11---11-----11--|
    a----11------11-------------11----9----9------9---|
    E----x-------x--------------9---------------------|
    
    In…
  • e9----9-----9-----9----9h10--9----9----9----9----9h10
    b--10---10----10----10---------10---10---10---10-----
    g----------------------------------------------------
    d----------------------------------------------------
    a----------------------------------------------------
    e----------------------------------------------------
    
    now…
  • This is in 4/4 or common time
    
    Intro
    G|---------|---------|---------|---------|
    D|---------|---------|---------|---------|
    A|-1-1-1-1-|-1-1-1-1-|-1-1-1-1-|-1-1-1-1-|
    E|---------|---------|---------|---------|
    
    G|---------|---------|---------|---------|---------|---------|x2
    D|*--------|---------|---------|---------|---------|--------*|
    A|*----2-2-|-----2-2-|-----2-2-|-----2-2-|-4-4-4-4-|-1-1-1-1*|
    E|-4-4-----|-2-2-----|-2-2-----|-2-2-----|---------|---------|
    
    Verse
    G|---------|---------|---------|---------|---------|---------|---------|
    D|---------|---------|---------|---------|---------|---------|---------|
    A|----1----|---------|-3-3-----|-1-1-1-1-|----1----|---------|-3-3-----|
    E|---------|----3----|-----1-1-|---------|---------|----3----|-----1-1-|
    
    G|---------|---------|---------|
    D|---------|---------|---------|
    A|-----0-0-|-3-3-----|-1-1-1-1-|
    E|-0-0-----|-----1-1-|---------|
    
    Chorus
    G|---------||---------|---------|---------|---------|---------|---------|x2
    D|---------||*--------|---------|---------|---------|---------|--------*|
    A|-1-1-1-1-||*----2-2-|-----2-2-|-----2-2-|-----2-2-|-4-4-4-4-|-1-1-1-1*|
    E|---------||-4-4-----|-2-2-----|-2-2-----|-2-2-----|---------|---------|
    
    Verse
    
    Chorus
    
    Guitar…
  • Intro:
    (The low part is played on another guitar, but can be played on one 
    guitar fairly easily.  Just listen to the CD for rhythym)
    E---5---4---2---0----3---2---0------------------------------
    B--------------------------------3---5---5---3--0----0-0-0-0
    G----------------------------------------------------2-2-1-1
    D----------------------------------------------------2-2-2-2
    A-0---0---0---0--------------------2---2---2----------------
    E------------------3---3---3---3------------------0---------
    
    (This…
  • INTRO:
    
    There's a lot of feeding back and string scraping and stuff.
    The bass plays the verse bassline twice, then the guitar starts playing the
    verse riff.
    
       C5       D5                G5
    E|------------------------------|
    B|------------------------------|
    G|-5--------7-------------------|…
  • Intro: D
    
    
    D
    Someday,
    
    C
    We'll leave this town,
    
    Am		D
    It wears us down,
    
    Em
    We'll leave somehow,
    
    Am	
    All it's harm,
    
    D	
    And all it's charm
    
    G
    Someday
    
    
    D
    Someday,
    
    C
    We'll leave behind,
    
    Am		D
    All this time,
    
    Em
    That has…
  • Intro (octave this on the B string) with tremolo picking
    I
    I
    I
    I7-9-10-13-14-16-17-19 (wah-wah here)
    I0-0-0--0--0--0--0--0
    I
    
    General riff used all over the road (octave on b string)
    I
    I--------------------10-7
    I--------------------10-7-7p5h7p5h7p5…
  • Chords
            E a d g b e
    
    E       0 2 2 1 0 0
    C#m     x 4 6 6 5 4
    Amaj7   5 x 6 6 5 4
    B       x 2 4 4 4 2
    E7      0 2 0 1 0 0
    A       x 0 2 2 2 0
    D       x x 0 2 3 2
    F#m     2 4 4 2 2 2
    Bm      x 2 4 4 3 2
    Dm      x x…
  • B                  E       B
      -----------------|---------------------|
    e-7--7--7--7--7--7-|-7--7--7--7--7--7--7-|
    b-7--7--7--7--7--7-|-9--9--9--7--7--7--7-|
    g-8--8--9--8--9--8-|-9--11-9--8--8--8--8-|
    d-9--9--9--9--9--9-|-9--9--9--9--9--9--9-|
    a-9--9--9--9--9--9-|-7--7--7--9--9--9--9-|
    E-7--7--7--7--7--7-|-7--7--7--7--7--7--7-|
    
    Bridge:
    
    |…
  • Chords used:
                
       F   Bb  Db  G#  Eb  A   Dm  C   D
    e--1---1---4---4---6---5---5---3---5--------
    B--1---3---6---4---8---5---6---5---7--------
    G--2---3---6---5---8---6---7---5---7--------
    D--3---3---6---6---8---7---7---5---7--------
    A--3---1---4---6---6---7---5---3---5--------
    E--1---x---x---4---x---5---x---x---x--------…
  • e----------------------------------------------------------|
    B----------------------------------------------------------|
    G----------------------------------------------------------|
    D-7-7-7-7-7-11-11-11-7-7-7-7-7-4-4-4-7-7-7-7-7-4-2-2-3-3---|
    A-7-7-7-7-7-11-11-11-7-7-7-7-7-4-4-4-7-7-7-7-7-4-2-2-3-3---|
    E-5-5-5-5-5-9--9--9--5-5-5-5-5-2-2-2-5-5-5-5-5-2-0-0-1-1---|
    
    this…
  • Chords: E a d g b e
    
    Bb	6 8 8 7 6 6
    D       x 5 7 7 7 5
    Gm      3 5 5 3 3 3
    Eb      x 6 8 8 8 6
    Cm      x 3 5 5 4 3
    F       1 3 3 2 1 1
    
    
    This is the main riff and it is played over the chorus chords
    (see below)
    
    Riff A:
    this…
  • Intro:
     G       F      E
    ---------------------------------||----| e
    ---------------------------------||----| B
    ----4-------2-----1--------------||----| G
    ----5-------3-----2--------------||----| D
    ----5-------3-----2--------------||----|…
  • Chords:
             E a d g b e
    D        x 5 7 7 7 5
    Bbdim    6 7 8 6 8 6
    Em       x 7 9 9 8 7
    A        5 7 7 6 5 5
    Dmaj7    x 5 7 6 7 5
    Bm       7 9 9 7 7 7
    G        3 5 5 4 3 3
    Em*      0 2 2 0 0 0
    A*       x 0 2 2 2 0
    D*…
  • Intro (this isn't exact, it's kinda different on every repeat)
    e---------------------------------------------------|
    B-------0------------0------------0-----------0-----|
    G-----0---0--------0---0--------0---0-------0---0---|
    D---------------------------------------------------|
    A---5-------5---10-------10---9-------9---9-------9-|
    E-3-----------8-------------7-----------7-----------|
    
    
    Other…
  • Chords:
        EADGBe
    Ab: 4665--
    C:  3355--
    C#: 4466--
    E:  0221--
    F:  1332--
    G:  3554--
    
    Intro:
    EFEF C Ab C# G  6x
    
    Verse 1:
    (Let the last G ring)                  C Ab C# G
    Late September you walked into my life
    (Let the last…
  • b1
    |---------------------------------------------------|
    |---------------------------------------------------|
    |--------7--7------------5--5---5--3--5--3--5-------|
    |-5--5--------3--4--5-------------------------------|
    
    b2
    |----------------------------------------------------|
    |----------------------------------------------------|
    |--------7--7-------------5--5--7--7--8--8--10--10---|
    |-5--5---------3--4--5-------------------------------|
    
    Gtr
    ^=bend…
  • Intro:
    
    e-5-----5-----5-----5----5----5-----5-----5-----5---|
    b---6-----6-----6-----6----6----6-----6-----6-----6-|
    g-----7-----7-----------5----5----------6-----6-----|
    D---------------------------------------------------|
    A---------------------------------------------------|
    E---------------------------------------------------|
    
    Verse:
    
    e-5-----5-----5-----5----5----5-----5-----5-----5---|
    b---6-----6-----6-----6----6----6-----6-----6-----6-|
    g-----7-----7-----------5----5----------6-----6-----|
    D---------------------------------------------------|
    A---------------------------------------------------|
    E---------------------------------------------------|
    
    e-5-----5-----5-----5----5----5-----5-----5-----5---|
    b---6-----6-----6-----6----6----6-----6-----6-----6-|
    g-----7-----7-----------5----5----------6-----6-----|
    D---------------------------------------------------|
    A---------------------------------------------------|
    E---------------------------------------------------|
    
    e-5-----5-----5-----5----5----5-----5-----5-----5---|
    b---6-----6-----6-----6----6----6-----6-----6-----6-|
    g-----7-----7-----------5----5----------6-----6-----|
    D---------------------------------------------------|
    A---------------------------------------------------|
    E---------------------------------------------------|
    
    e-5-----5-----5-----5----5----5-----5-----5-----5---|
    b---6-----6-----6-----6----6----6-----6-----6-----6-|
    g-----7-----7-----------5----5----------6-----6-----|
    D---------------------------------------------------|
    A---------------------------------------------------|
    E---------------------------------------------------|
    
    Short…
  • Intro
    
    
    e|---0-2---0-2---0--32---32---32----0-2---0-2---0--32---32---32--|         
    b|--3-----3-----3------0-----0-----3-----3-----3------0----0-----|
    g|---------------------------------------------------------------|
    d|---------------------------------------------------------------|
    a|---------------------------------------------------------------|
    e|---------------------------------------------------------------|
    
    
    e|---0-2---0-2---0--32---32---32----0-2---0-2---0--32---32---32--|…
  • (E:-0-3-0-) G                 D
    The wash is out, it's hangin' up
              C              G
    And all I had is nothin'
               G               D
    Nothin' to do, nothin' to say
               C               G
    I think I must…
  • Tuning: standard....figure strum patterns yourself, im not your maid;-)
    
          C.............Am.........Fadd9......C..... {play this over each verse}
    e|--------------------------------------------------------------------------|
    B|--------------------------------------------------------------------------|
    G|--5h7b9-9-9-9r7-5---5h7b9r7p5---5-7b9r7------repeat…
Наверх