Аккорды Ash Riser - You Know I

Добавлено: @romashka
Дата добавления: 11 Июня 2020г.
Рейтинг:
0.0
Просмотров: 49
Транспонировать - +
[Bass Intro]
 
G|-------------------------|
D|-------------------------|
A|-3---------3-------1--2--| x4
E|-------------3--3--------|

[Verse 1]
 
Dm                         Gm
Meet you downstairs, in the bar and hurt
    A7                          Dm
My rolled up sleeves and my old skull t-shirt
     Dm               Gm
I say "What did you do with him today?"
    A7                           Dm
And sniffed you out like you were Tanqueray
 
[Bridge 1]
 
Gm
'Cause I'm your fella, your guy
E7
Hand you my Stella and fly
F
By the time you're out the door
E7                 A7
I tear men down like Roger Moore
 
[Chorus 1]
 
Dm
You cheated yourself
Am       E7     Am
Like I knew you would
    Dm               Am
You told me you were trouble
  E7                  Am
I know that you're no good

After the chorus this riff leads into the next verse
e|--------------------|
B|--------------------|
G|--------------------|
D|--------------------|
A|-----------5-3------|
E|-3-5-6-5-3----------|
 
[Verse 2]
 
Dm                   Gm
Upstairs in bed with your ex-boy
A7                              Dm
He's in the place but you can't get no joy
Dm                    Gm
Thinking on me in the final throes
A7                Dm
This is when your buzzer goes
 
[Bridge 2]
Gm
Went out to meet, my chips and pitta
E7
I say, "When we married", 'cause I'm not bitter
F
"There'll be none of her no more"
    E7                  A7
You cried for me on the kitchen floor

e|--------------------|
B|--------------------|
G|--------------------|
D|--5-----------------|
A|----5-5s8-10--------|
E|--------------------|
 
[Chorus 2]
Dm
You cheated yourself
Am     E7       Am
Like I knew you would
    Dm               Am
You told me you were trouble
  E7                  Am
I know that you're no good

[Interlude]
Dm Am E7 Am x2
 
(this riff can also be used in the later choruses)
e|------------------|------------------|
B|------------------|------------------|
G|-------5--6-5-----|-------7-5h6------|
D|--------------8-5-|-5-8-5-------8-5--|
A|------------------|------------------|
E|-3-6-3------------|------------------|
 
[Verse 3]
 
DM               Gm
Sweet reunion, Jamaica and Spain
A7                Dm
We're like how we were again
Dm                     Gm
You're in the tub, I'm on the seat
A7                    Dm
I lick my lips as you soak my feet
 
[Bridge 3]
 
Gm
Then I notice little carpet burns
E7
Your stomach drops, your guts they churn
F
I shrug and it is the worst
    E7              A7
Who truly stuck the knife in first
 
[Chorus 3]
 
Dm
You cheated yourself
Am     E7       Am
Like I knew you would
    Dm               Am
You told me you were trouble
  E7                  Am
I know that you're no good

-----------------------------------------------------
     ARTIC MONKEYS - YOU KNOW I'M NO GOOD (COVER)
-----------------------------------------------------
 
This is a tab for the cover of Amy Winehouse's 'You Know I'm No Good'
by the Arctic Monkeys.
If you haven't heard it then go search on Youtube, it's a great song!
 
There are actually 2 guitars in this which you can play.
guitar 1: strum the chords normally
guitar 2: strum the same chords upwards once and slowly
(try messing with distortion on guitar 2 see what you think)
 
 
[Bass Intro]
 
G|-------------------------|
D|-------------------------|
A|-3---------3-------1--2--| x4
E|-------------3--3--------|
 
[Verse 1]
Cm                         Fm
 Meet you downstairs in the bar and heard
     G7                         Cm
your rolled up sleeves in your skull t-shirt.
        Cm                Fm
Said what did you do with him today?
    G7                      Cm
And sniff me out like I was Tanquera
 
[Pre-chorus 1]
Fm
 'Cos you're my fella, my guy.
D7
 Hand me your Stella and fly.
Eb
 By the time, I'm out the door,
    D7                G
You tear me down like Roger Moore.
 
[Chorus]
Cm                 Gm         D7          Gm
 I cheated myself,     like I knew I would.
  Cm             Gm
I told ya, I was trouble.
    D7                Gm
You know that, I'm no good.
 
After the chorus this riff leads into the next verse
e|--------------------|
B|--------------------|
G|--------------------|
D|--------------------|
A|-----------5-3------|
E|-3-5-6-5-3----------|
 
[Verse 2]
Cm                    Fm
 Upstairs in bed with my ex boy.
G7                        Cm
 He's in the place, but I can’t get joy.
Cm                      Fm
 Thinking of you in the final throws,
G7                 Cm
 This is when my buzzer goes.
 
[Pre-chorus 2]
Fm
 Run out to me, your chips and pitta.
D7
 You say when we’re married 'Cos you're not bitter.
Eb
 There'll be none of him no more.
  D7                    G
I cried for you on the kitchen floor.
 
e|--------------------|
B|--------------------|
G|--------------------|
D|--5-----------------|
A|----5-5s8-10--------|
E|--------------------|
 
[Chorus]
Cm                 Gm         D7          Gm
 I cheated myself,     like I knew I would.
  Cm             Gm
I told ya, I was trouble.
    D7                Gm
You know that, I'm no good.
 
[Interlude]
Cm Gm D7 Gm x2
 
(this riff can also be used in the later choruses)
e|------------------|------------------|
B|------------------|------------------|
G|-------5--6-5-----|-------7-5h6------|
D|--------------8-5-|-5-8-5-------8-5--|
A|------------------|------------------|
E|-3-6-3------------|------------------|
 
[Verse 3]
Cm               Fm
 Sweet reunion, Ja-maica and Spain.
G7                 Cm
 We're like how we were again.
Cm               Fm
 I'm in the tub, You’re on the seat.
G7                   Cm
 Lick your lips as I soak my feet.
 
[Pre-chorus 3]
Fm
 Then you notice lickle carpet burn.
D7
 My stomach drops and my guts churn.
Eb
 You shrug and it's the worst,
   D7                G
to truly stick the knife in first.
 
[Chorus]
Cm                 Gm         D7          Gm
 I cheated myself,     like I knew I would.
  Cm             Gm
I told ya, I was trouble.
    D7                Gm
You know that, I'm no good.
 
Cm                 Gm         D7          Gm
 I cheated myself,     like I knew I would.
  Cm             Gm
I told ya, I was trouble.
    D7                Gm
You know that, I'm no good.
 
[Outro]
Dm Am E7 Am x2
Dm

Бой: вниз--глушка--быстро:(вниз-верх-вниз)--вниз--глушка.
Наверх