Аккорды Asper X - Земля

Добавлено: @romashka
Дата добавления: 10 Августа 2017г.
Рейтинг:
0.0
Просмотров: 323
Транспонировать - +
Вступление Бас: x4
6)-0-0-0--7-7-7--3-3-3--8-8-8-8-10-8-7--

Вступление: x4
    E5     B5     G5      C5    C5 D5 C5 B5
4)-2-2-2--9-9-9--5-5-5--10-10---10-12-10-9--
5)-2-2-2--9-9-9--5-5-5--10-10---10-12-10-9--
6)-0-0-0--7-7-7--3-3-3--8--8----8--10-8--7--

Куплет:
Em                  Em / C
У нас с тобою на двоих
Em                Em / C
Моя единственная жизнь
Em                     Em / C
Давай не будем портить стих
Em                 Em / C
Давай останемся дружить

Em                  Em / C
Вокруг ни стен, ни потолка
Em                  Em / C
И под ногами голый лёд
Em                Em / C
И кем-то выписано два
Em                  Em / C
Билета в праздничный полет

Припев:
Em
Замерли
G
За руки 
C
Замертво 
Am
Падает
Em G      C Am   
На нас Земля 
Падает 
Em G      C Am
На нас Земля.

Проигрыш=Вступление: x4
    E5     B5     G5      C5    C5 D5 C5 B5
4)-2-2-2--9-9-9--5-5-5--10-10---10-12-10-9--
5)-2-2-2--9-9-9--5-5-5--10-10---10-12-10-9--
6)-0-0-0--7-7-7--3-3-3--8--8----8--10-8--7--

Куплет:
Em                 Em / C
На паутине шагом вниз
Em               Em / C
Качается твоя любовь.
Em                  Em / C
Ты мой единственный каприз,
Em                  Em / C
А я усталый твой Пьеро.

Em                  Em / C
Чтоб никому нас не найти,
Em                  Em / C
Чтоб я был вечно твой герой
Em                 Em / C
Лети вперед, лети, лети
Em                  Em / C
Я честно-честно за тобой.

Припев:
Em
Замерли
G
За руки 
C
Замертво 
Am
Падает
Em G      C Am   
На нас Земля 
Падает 
Em G      C Am
На нас Земля
Падает
Em G      C Am   
На нас Земля 
Падает 
Em G      C Am
На нас Земля
Падает...

Кода=Вступление: x8 
    E5     B5     G5      C5    C5 D5 C5 B5
4)-2-2-2--9-9-9--5-5-5--10-10---10-12-10-9--
5)-2-2-2--9-9-9--5-5-5--10-10---10-12-10-9--
6)-0-0-0--7-7-7--3-3-3--8--8----8--10-8--7--

Бой: V v ^ ^ v v^ v^. "Em / C" играются так:Em (V v ^ ^), C (v v^ v^)
Наверх