Аккорды Astronomia - Coffin Dance Meme

Добавлено: @romashka
Дата добавления: 06 Мая 2020г.
Рейтинг:
0.0
Просмотров: 84
Транспонировать - +
e|-------------------------1-1-1-1-3-3-3-3-3-3-3-3-|
B|---------3-3-3-3-1-1-1-1-------------------------|
G|-3-3-3-3-----------------------------------------|
D|-------------------------------------------------|
A|-------------------------------------------------|
E|-------------------------------------------------|

e|-3-3-3-3-------------------------------------------|
B|---------1-------------3-1---------------1---------|
G|-----------3-2---0---0-------3---2---2-2-----3-2-0-|
D|---------------3-----------------------------------|
A|---------------------------------------------------|
E|---------------------------------------------------|

e|---6-5-6-5-6-------6-5-6-5-6-------------------------------------|
B|-------------------------------------3-1---------------1---------|
G|-0-----------0---0-------------0---0-------3---2---2-2-----3-2-0-|
D|-----------------------------------------------------------------|
A|-----------------------------------------------------------------|
E|-----------------------------------------------------------------|

e|---6-5-6-5-6-------6-5-6-5-6----------------------------1-1-1-1-|
B|----------------------------------------3-3-3-3-1-1-1-1---------|
G|-0-----------0---0--------------3-3-3-3-------------------------|
D|----------------------------------------------------------------|
A|----------------------------------------------------------------|
E|----------------------------------------------------------------|

e|-3-3-3-3-3-3-3-3-3-3-3-3-3-3-3-3---|
B|-----------------------------------|
G|---------------------------------0-|
D|-----------------------------------|
A|-----------------------------------|
E|-----------------------------------|
Наверх