Аккорды Astronomia - Coffin Dance Meme

Добавлено: @romashka
Дата добавления: 19 Августа 2020г.
Рейтинг:
0.0
Просмотров: 45
Транспонировать - +
-----------------------------------12-12-12-12-14-14-14-14-14-14-14-14-----------------         
10-10-10-10-14-14-14-14-12-12-12-12------------------------------------14-12-----------
-----------------------------------------------------------------------------14-13-9---
---------------------------------------------------------------------------------------
---------------------------------------------------------------------------------------
---------------------------------------------------------------------------------------


------------------------------------------------
------12/14-12-----------------12---------------
11-11-----------14--13--13-13-----14-13---------
---0---------0--0-------------------------------
------------------------------------------------
--------------------0----0-----0---0------------


--------12/17-16-17-16-17-------12/17-16-17-16-17
-------------------------------------------------
11------------------------11-11------------------
-------------------------------------------------
--------------0------0-----0--0--------0-----0---
-------------------------------------------------
Наверх