Аккорды АукцЫон - Седьмой

Добавлено: @romashka
Дата добавления: 16 Ноября 2017г.
Рейтинг:
0.0
Просмотров: 298
Транспонировать - +
0111, 0111 отвечай, 0111, я тебя не слышу (в двоичном коде)

Em *        Cm *             Bm *           B7 *
Седьмой, седьмой, отвечай, седьмой, я тебя не слышу
Em *        Cm *             Bm *   B7 *
За окном чужой, но встал герой и вышел

Em *        Cm *             Bm *           B7 *
У волка ночь, у героя меч, за горам Волга, холод за спиной
Em *        Cm *           Bm * B7 *
Никого не жалко, ничего надолго

  C          Em
Где-е-е-е-е ещё
  C          Em
Кто-о-о-о-о ещё,
  C          Em
Я-а-а-а-а ещё

Bm *   B7 * 
1)---------------------------
2)----------8--7--5----------
3)-------4-----------4-------
4)----5-----------------5----
5)-7-----------------------7-
6)---------------------------

Em *        Cm *             Bm *    B7 *
Труба зовёт, герой идёт, звенит кольчуга
Em *        Cm *             Bm *    B7 *
Только злится вьюга и ветер гонит прочь
Em *        Cm *             Bm *  B7 *
Не уйти намного, не найти друг друга
Em *        Cm *      Bm *  B7 *
День как день, ночь как ночь

  C          Em
Где-е-е-е-е ещё
  C          Em
Кто-о-о-о-о ещё,
  C          Em
Я-а-а-а-а ещё

Bm                    Em 
Седьмой, седьмой, не надо бы
Bm                    Em 
Седьмой, седьмой, а может быть
Bm                    Em 
Седьмой, седьмой, а если бы
Bm                    Em 
Седьмой, седьмой, ну если бы

Bm *      B7 *
Надо бы, надо бы
Em *  Cm *   Bm *   B7 *  Em * Cm * Bm *  B7 *
Если бы я  -  а,    оо,   если бы я

Em *
1)0|---|---|---
2)-|---|-2-|---
3)0|---|---|---
4)-|---|---|-3- 
5)-|-1-|---|--- 
6)-|---|---|---
    VII VIII IX

Cm *
1)0|---|---|---
2)-|---|-2-|---
3)0|---|---|---
4)-|---|---|-3- 
5)-|-1-|---|--- 
6)-|---|---|---
    III IV   V

Bm *
1)0|---|---|---
2)-|---|-2-|---
3)0|---|---|---
4)-|---|---|-3- 
5)-|-1-|---|--- 
6)-|---|---|---
    II  III  IV

B7 *
1)0|---|---|---
2)-|---|---|-4-
3)0|---|---|---
4)-|---|---|-3- 
5)-|-1-|---|--- 
6)-|---|---|---
    II  III  IV
Наверх