Аккорды Avicii - Levels

Добавлено: @romashka
Дата добавления: 27 Февраля 2018г.
Рейтинг:
0.0
Просмотров: 185
Транспонировать - +
 • Ритм-партия: 
Am C G F (лучше будет играть квинт-версии этих аккордов)

 • Басс-партия:
(повторять в течение всей песни), 4 такта

5)---------5-5-5-------------------
6)--7-7-7---------5-5-5--3--3-3-3--

 • Соло-партия:

Часть 1:
1)--9-7---------------------------9-7---------------------------
2)------9-7-5-5--5-5-5-5-4-4-5-5------9-7-5-5--5-5-5-5-2-2-0-0--
3)--------------------------------------------------------------
4)--------------------------------------------------------------
5)--------------------------------------------------------------
6)--------------------------------------------------------------

Часть 2:
1)--9-7---------------------------9-7---------------------------
2)------9-7---------------------------9-7-----------------------
3)----------9-9--9-9-9-9-8-8-9-9----------9-9--9-9-9-9-6-6------
4)---------------------------------------------------------9-9--
5)--------------------------------------------------------------
6)--------------------------------------------------------------
Наверх