Аккорды Bananarama - Cruel Summer

Добавлено: @romashka
Дата добавления: 07 Апреля 2018г.
Рейтинг:
0.0
Просмотров: 60
Транспонировать - +
chorus:

   C#m             A               B               A

Gb|------------------------r------|-------------------------------|
Db|------------------------e------|-------------------------------|
Ab|5-------3-------5-------s---5--|1-0-1---3---1---3-------0------|
Eb|------------------------t------|-------------------------------|

   1   &   2   &   3   &   4   &   1   &   2   &   3   &   4   &

note: there are a few variations of this bassline in the some of 
      the choruses. this is the main one and the rest have only
      very minor changes.

verse:

   C#m             B               A               B

Gb|------------------------r------|-------------------------------|
Db|------------------------e------|-------------------------------|
Ab|5-------3-------5-------s------|1-0-1---3---1---3-------0------|
Eb|------------------------t------|-------------------------------|

   1   &   2   &   3   &   4   &   1   &   2   &   3   &   4   &

bridge before the chorus:

   Amaj7           Badd9           Amaj7           Badd9

Gb|-------------------------------|-------------------------------|
Db|-------------------------------|-------------------------------|
Ab|1-----------1---3-------3---0--|1-----------0---3-------3---0--|
Eb|------1-1-------------3--------|------1-1-------------3--------|

   1   &   2   &   3   &   4   &   1   &   2   &   3   &   4   &
comments powered by Disqus
Наверх