Аккорды Bananarama - Venus

Добавлено: @romashka
Дата добавления: 07 Апреля 2018г.
Рейтинг:
0.0
Просмотров: 34
Транспонировать - +
VERSE 1
Godddess on the mountain top
Burning like a silver flame
The summit of beauty and love
and Venus was her name

CHORUS
She's got it, Yeah baby she's got it
I'm your Venus, I'm your fire at your desire
Well, I'm your Venus, I'm your fire, at your desire

VERSE 2
Her weapons were her crystal eyes
Making every man a man
Black as the dark night she was
Got what no-one else had
Waah

CHORUS
She's got it
Yeah baby she's got it
I'm your Venus, I'm your fire at your desire
Well, I'm your Venus, I'm your fire, at your desire

<>

CHORUS

VERSE 3
Goddess on the mountain top
Burning like a silver flame
The summit of beauty and love
And Venus was her name
Wow

CHORUS

...Venus was her name
Yea baby she's got it
Yea baby she's got it
Yea baby she's got it
Yea baby she's got it

INTRO RIFF <>
|--77777--77--77--x-----|
|--xxxxx--xx--xx--x-----|
|--99999--99--99--x-----|
|--99999--99--99--x-----|
|--77777--77--77--x-----|
|--77777--77--77--x-----|


RIFF FOR VERSE
|-0-0-3-0---32--32--32----|
|-------------------------|
|---------22--44--22------|
|---------22--44--22------|
|-------------------------|
|-------------------------|

RIFF FOR CHORUS
|-xx--xxxx--xx--xxxx--xx-xxxx--xx----|
|-00--xxxx--00--xxxx--00-xxxx--00----|
|-22--xxxx--44--xxxx--55-xxxx--44----|
|-22--xxxx--22--xxxx--00-xxxx--22----|
|-22--xxxx--33--xxxx--55-xxxx--33----|
|-xx--xxxx--xx--xxxx--xx-xxxx--xx----|

|-0-0-3-0-----3-2-0-0-3-0-----3-2----|
|------------------------------------|
|----------22--------------22--------|
|----------22--------------22--------|
|------------------------------------|
|------------------------------------|

  G11  D/F
|--3---2-----------------|
|--2---0-----------------|
|--0---0-----------------|
|--0---3-----------------|
|--3---2-----------------|
|--3---3-----------------|
comments powered by Disqus
Наверх