Аккорды Barlama - Лампа

Добавлено: @romashka
Дата добавления: 09 Августа 2021г.
Рейтинг:
0.0
Просмотров: 43
Транспонировать - +
Проигрыш / вступление:


Просто... всё так быстро происходит... я...я запутался...

|---------------------------------|
|---------------------------------|
|------4-5-454------4-5-454-------|
|----5--------5---5--------5------|
|--7------------7-----------------|
|--0------------0-----------------|

|---------------------------------|
|---------------------------------|
|------4-5-454------4-----4-------|
|----5--------5---5-----5---------|
|--7------------7-----5-----------|
|--0------------0-----------------|

|---------------------------------|
|---------------------------------|
|------4-5-454------4-5-454-------|
|----5--------5---5--------5------|
|--3------------3-----------------|
|---------------------------------|

|---------------------------------|
|---------------------------------|
|------4-5-454------4-----4-------|
|----5--------5---5-----5---------|
|--3------------3-----2-----------|
|---------------------------------|

|---------------------------------|
|---------------------------------|
|------4-5-454------4-5-454-------|
|----2--------5---2--------5------|
|--0------------0-----------------|
|---------------------------------|

|---------------------------------|
|---------------------------------|
|------4-5-454------4-----0-------|
|----2--------5---2-----0---------|
|--0------------0-----------------|
|----------------------3----------|

|---------------------------------|
|---------------------------------|
|------4-5-454------4-5-454-------|
|----5--------5---5--------5------|
|--7------------7-----------------|
|--0------------0-----------------|

|---------------------------------|
|---------------------------------|
|------4-5-454------4-5-454-------|
|----5--------5---5--------5------|
|--7------------7-----------------|
|--0------------0-----------------|

Куплет 1
Em
Где раздеться

Скинуть грязь с этих стен
           D
Окружённое здание
C
Выходи по одному

Окружено здание
        Cmaj9   Am
Твоим недопониманием

Замоли, замоли

Душу мне
             G
Замарай себе постель
Em
Каплями от свеч

Ты перестаёшь вдыхать свет

Припев
Em
Лампа в подъезде

Забери меня с ней
        D
Тяну в надежде
C
Руку подняться

Я сам не могу
          Cmaj9
Дай мне надежду
Am
Руку подняться

Забери меня с ней
        G
Забери меня с ней
Em
Лампа в подъезде

Лампа в подъезде

Лампа в подъезде

Куплет 2
Em
Где раздеться

Скинуть грязь с этих стен
           D
Окружённое здание
C
Выходи по одному

Окружено здание
          Cmaj9   Am
Твоим недопониманием

Замоли, замоли

Душу мне
             G
Замарай себе постель
Em
Каплями от свеч

Ты перестаёшь вдыхать свет

Припев
Em
Лампа в подъезде

Забери меня с ней
          D
Тяну в надежде
C
Руку подняться

Я сам не могу
          Cmaj9
Дай мне надежду
Am
Руку подняться

Забери меня с ней
         G
Забери меня с ней
Em
Лампа в подъезде

Лампа в подъезде

Лампа в подъезде

Проигрыш

Припев
Em
Лампа в подъезде

Забери меня с ней
         D
Тяну в надежде
C
Руку подняться

Я сам не могу
           Cmaj9
Дай мне надежду
Am
Руку подняться

Забери меня с ней
                G
Забери меня с ней
Em
Лампа в подъезде

Лампа в подъезде

Лампа в подъезде

Обыгрывается партия гитары и баса.
Наверх