Аккорды Ben Nichols - The Last Pale Light In The West

Добавлено: @romashka
Дата добавления: 16 Декабря 2017г.
Рейтинг:
0.0
Просмотров: 261
Транспонировать - +
Intro:
Em             |             |G              |               ||x2                        
---------------|-------------|---------------|---------------|
---0------0----|---0-----0---|---0------0----|---0------0----|
------0------0-|-----0-----0-|------0------0-|------0------0-|
-----2------2--|----2-----2--|-----0------0--|-----0------0--|
---------------|-------------|---------------|---------------|
-0------0------|-0-----0-----|-3------3------|-3------3------|

Verse 1:
      Em                G            Em                G
In my hands I hold the ashes, in my veins black pitch runs
        C            Em              D             C
In my chest the fire catches. In my way, the settin sun

---------------|-------------|---------------|---------------|
---1------1----|---0-----0---|---3------3----|---1------1----|
------0------0-|-----0-----0-|------2------2-|------0------0-|
-----2------2--|----2-----2--|-0---0--0---0--|-----2------2--|
-3------3------|-------------|---------------|-3------3------|
---------------|-0-----0-----|---------------|---------------|

       Em             G             Em                  G
Dark clouds gather 'round me. To the west, the soul is bound
            C      Em                    D             C
And I will go on ahead, free. There's a light yet to be found

Chorus:
    Em         D   C      G
The last pale light in the west
    Em         D   C      G
The last pale light in the west

Em | G }x2

Verse 2:
     Em             G               Em               G
And I ask for no redemption in this cold n' barren place
       C                Em              D           C
Still I see a faint reflection and so by it got my way

Chorus:
    Em         D   C      G
The last pale light in the west
    Em         D   C      G
The last pale light in the west
Наверх